Song name
# A B C D E F G H I J K L M N O P Q R S T U V W X Y Z

Blood Red Shoes - Red River tab

-------------------------------------------------------------------------------
                             Red River - Blood Red Shoes
-------------------------------------------------------------------------------
Tabbed by: Andre Te.
E-mail: voo@online.de

Tuning: DAD (Drop D)

Intro: x4
e|----------------------------------------------------------------|
B|----------------------------------------------------------------|
G|----------------------------------------------------------------|
D|----------------------------------------------------------------|
A|----------------------------------------------------------------|
D|-0-0-10-12---12-12-10-12-10-5-3---3-3-5-3--0--0--0-5-3--0--0----|


verse:
e|----------------------------------------------------------------|
B|----------------------------------------------------------------|
G|----------------------------------------------------------------|
D|----------------------------------------------------------------|x2
A|----------------------------------------------------------------|
D|-5-8-8-8-8-8-8-7---3-3-3-3-3-3-5---0-0-0-0-0-0-0---0-0-0-0-0-0--|

e|---------------------------------------------------------------------------|
B|---------------------------------------------------------------------------|
G|---------------------------------------------------------------------------|
D|---------------------------------------------------------------------------|
A|---------------------------------------------------------------------------|
D|-5-8-8-8-8-8-8-7---3-3-3-3-3-3-5---0-0-0-0-0-0-0---12--12-12--10--10-7-----|

e|---------------------------------------------------------------------------|
B|---------------------------------------------------------------------------|
G|---------------------------------------------------------------------------|
D|---------------------------------------------------------------------------|
A|---------------------------------------------------------------------------|
D|-5-8-8-8-8-8-8-7---3-3-3-3-3-3-10--10-10-10-10-10-10-11--11-11-11-11-11-11-|


chorus:
e|----------------------------------------------------------------|
B|----------------------------------------------------------------|
G|----------------------------------------------------------------|
D|----------------------------------------------------------------|
A|----------------------------------------------------------------|
D|-0-0-10-12---12-12-10-12-10-5-3---3-3-5-3--0--0--0-5-3--0--0----|

e|----------------------------------------------------------------|
B|----------------------------------------------------------------|
G|----------------------------------------------------------------|
D|----------------------------------------------------------------|
A|----------------------------------------------------------------|
D|-0-0-10-12---12-12-15-17--17--17-15-12--5-3-0--0--0-5-3--0--0---|

e|----------------------------------------------------------------|
B|----------------------------------------------------------------|
G|----------------------------------------------------------------|
D|----------------------------------------------------------------|x2
A|----------------------------------------------------------------|
D|-0-0-10-12---12-12-10-12-10-5-3---3-3-5-3--0--0--0-5-3--0--0----|


verse:
e|----------------------------------------------------------------|
B|----------------------------------------------------------------|
G|----------------------------------------------------------------|
D|----------------------------------------------------------------|x2
A|----------------------------------------------------------------|
D|-5-8-8-8-8-8-8-7---3-3-3-3-3-3-5---0-0-0-0-0-0-0---0-0-0-0-0-0--|

e|---------------------------------------------------------------------------|
B|---------------------------------------------------------------------------|
G|---------------------------------------------------------------------------|
D|---------------------------------------------------------------------------|
A|---------------------------------------------------------------------------|
D|-5-8-8-8-8-8-8-7---3-3-3-3-3-3-5---0-0-0-0-0-0-0---12--12-12--10--10-7-----|

e|---------------------------------------------------------------------------|
B|---------------------------------------------------------------------------|
G|---------------------------------------------------------------------------|
D|---------------------------------------------------------------------------|
A|---------------------------------------------------------------------------|
D|-5-8-8-8-8-8-8-7---3-3-3-3-3-3-10--10-10-10-10-10-10-11--11-11-11-11-11-11-|


guitar 1: rhythm
e|------------------------------------------------------------------------|
B|------------------------------------------------------------------------|
G|------------------------------------------------------------------------|
D|------------------------------------------------------------------------|x4
A|-12-12-12-11--11-11--7---7--7-5--5-5-3--3-3-3-3-3-3-3-3-3-3-3-3-3-3-3-3-|
D|-12-12-12-11--11-11--7---7--7-5--5-5-3--3-3-3-3-3-3-3-3-3-3-3-3-3-3-3-3-|


guitar 2: solo
e|------------------------------------------------------------------------|
B|-15-15-15-14--14-14-10--10-10-9--9-9-6--6-6-6-6-6-6-6-6-6-6-6-6-6-6-6-6-|
G|------------------------------------------------------------------------|
D|------------------------------------------------------------------------|x4
A|------------------------------------------------------------------------|
D|------------------------------------------------------------------------|


interlude:
e|-----|----------------------------------------------------------------|
B|-----|----------------------------------------------------------------|
G|-----|----------------------------------------------------------------|
D|-----|----------------------------------------------------------------|
A|-----|----------------------------------------------------------------|
D|-12\-|-0-0-10-12---12-12-10-12-10-5-3---3-3-5-3--0--0--0-5-3--0--0----|

e|----------------------------------------------------------------------|
B|------------------------------------------------------15~-------------|
G|------------------------------------------------------14~-------------|
D|----------------------------------------------------------------------|
A|----------------------------------------------------------------------|
D|-0-0-10-12---12-12-15-17--17--17-15-12--5-3--0--0--0------------------|


guitar 1: rhythm
e|------------------------------------------------------------------------|
B|------------------------------------------------------------------------|
G|------------------------------------------------------------------------|
D|------------------------------------------------------------------------|x3
A|-12-12-12-11--11-11--7---7--7-5--5-5-3--3-3-3-3-3-3-3-3-3-3-3-3-3-3-3-3-|
D|-12-12-12-11--11-11--7---7--7-5--5-5-3--3-3-3-3-3-3-3-3-3-3-3-3-3-3-3-3-|


guitar 2: solo
e|------------------------------------------------------------------------|
B|-15-15-15-14--14-14-10--10-10-9--9-9-6--6-6-6-6-6-6-6-6-6-6-6-6-6-6-6-6-|
G|------------------------------------------------------------------------|
D|------------------------------------------------------------------------|x3
A|------------------------------------------------------------------------|
D|------------------------------------------------------------------------|


guitar 1: rhythm
e|-------------------------------------------|
B|-------------------------------------------|
G|-------------------------------------------|
D|-------------------------------------------|
A|-12-12-12-14--14-14-15--15-15-17--17-17-18-|
D|-12-12-12-14--14-14-15--15-15-17--17-17-18-|

e|-------------------------------------------------------|
B|-------------------------------------------------------|
G|-------------------------------------------------------|
D|-------------------------------------------------------|
A|-18-18-18-18-18-18-18-18-18-18-18-18-18-18-19-19--12\--|
D|-18-18-18-18-18-18-18-18-18-18-18-18-18-18-19-19--12\--|


guitar 2: solo
e|-------------------------------------------|
B|-15-15-15-17--17-17-18--18-18-20--20-20-21-|
G|-------------------------------------------|
D|-------------------------------------------|
A|-------------------------------------------|
D|-------------------------------------------|

e|-------------------------------------------17-17-------|
B|-21-21-21-21-21-21-21-21-21-21-21-21-21-21--------15\--|
G|-------------------------------------------------------|
D|-------------------------------------------------------|
A|-------------------------------------------------------|
D|-------------------------------------------------------|



************************************

| /   slide up
| \   slide down
| h   hammer-on
| p   pull-off
| ~   vibrato
| +   harmonic
| x   Mute note
| b   Bend
| pb  Pre-bend
| br  Bend release
| pbr Pre-bend release
| brb Bend release bend

************************************
Tap to rate this tab
# A B C D E F G H I J K L M N O P Q R S T U V W X Y Z