Song name
# A B C D E F G H I J K L M N O P Q R S T U V W X Y Z

Blood Red Shoes - Idle Hands tab

-------------------------------------------------------------------------------
                             Idle Hands - Blood Red Shoes
-------------------------------------------------------------------------------
Tabbed by: Andre Te.
E-mail: voo@online.de

Tuning: EAD (Standard)

Intro: (It's actually an effect causing the repeating of the last note,
but I just wrote it like if you'd play it without such delay/feedback)
e|----------------------------------------------------------------------|
B|----------------------------------------------------------------------|
G|----------------------------------------------------------------------|
D|-16-16-16-16-16-18-18\14-14-14-14-14-14-14-14-14-14-14-14-14-14-14-14-|
A|--x--x--x--x--x--x--x--x--x--x--x--x--x--x--x--x--x--x--x--x--x--x--x-|
E|-14-14-14-14-14-14-14-14-14-14-14-14-14-14-14-14-14-14-14-14-14-14-14-|

verse: x3
e|----------------------------------------------------------------------|
B|----------------------------------------------------------------------|
G|----------------------------------------------------------------------|
D|-4---4---4-4--4/6--6--6--2---2---2-2---2------------------------------|
A|-4---4---4-4--4/6--6--6--2---2---2-2---2------------------------------|
E|-2---2---2-2--2/4--4--4--0---0---0-0---0------------------------------|

e|----------------------------------------------------------------------|
B|----------------------------------------------------------------------|
G|----------------------------------------------------------------------|
D|----------------------------------------------------------------------|
A|----------------------------------------------------------------------|
E|-5-7---7-7h8p7-5--5-7---7-7h8p7-5--5-7---7-7h8p7-5--5-7---7-7h8p7-5---|


chorus: x2
e|----------------------------------------------------------------------|
B|----------------------------------------------------------------------|
G|----------------------------------------------------------------------|
D|----------------------------------------------------------------------|
A|----------------------------------------------------------------------|
E|-5p3---3-3-3-3-3--5p3---3-3-3-3-3--4p0-0-0-0-0-0--4p0-0-0-0-0-0-------|

e|----------------------------------------------------------------------|
B|----------------------------------------------------------------------|
G|----------------------------------------------------------------------|
D|----------------------------------------------------------------------|
A|----------------------------------------------------------------------|
E|-5-7---7-7h8p7-5--5-7---7-7h8p7-5--5-7---7-7h8p7-5--5-7---7-7h8p7-5---|

Bridge:
e|----------------------------------------------------------------------|
B|----------------------------------------------------------------------|
G|----------------------------------------------------------------------|
D|-16-16-16-16-16-18-18\14-14-14-14-14-14-14-14-14-14-14-14-14-14-14-14-|
A|--x--x--x--x--x--x--x--x--x--x--x--x--x--x--x--x--x--x--x--x--x--x--x-|
E|-14-14-14-14-14-14-14-14-14-14-14-14-14-14-14-14-14-14-14-14-14-14-14-|


e|----------------------------------------------------------------------|
B|----------------------------------------------------------------------|
G|----------------------------------------------------------------------|
D|----------------------------------------------------------------------|
A|----------------------------------------------------------------------|
E|-5-7---7-7h8p7-5--5-7---7-7h8p7-5--5-7---7-7h8p7-5--5-7---7-7h8p7-5---|


verse: x2
e|----------------------------------------------------------------------|
B|----------------------------------------------------------------------|
G|----------------------------------------------------------------------|
D|-4---4---4-4--4/6--6--6--9---9---9-9---9------------------------------|
A|-4---4---4-4--4/6--6--6--9---9---9-9---9------------------------------|
E|-2---2---2-2--2/4--4--4--7---7---7-7---7------------------------------|

e|----------------------------------------------------------------------|
B|----------------------------------------------------------------------|
G|----------------------------------------------------------------------|
D|----------------------------------------------------------------------|
A|----------------------------------------------------------------------|
E|-5-7---7-7h8p7-5--5-7---7-7h8p7-5--5-7---7-7h8p7-5--5-7---7-7h8p7-5---|


chorus: x2
e|----------------------------------------------------------------------|
B|----------------------------------------------------------------------|
G|----------------------------------------------------------------------|
D|----------------------------------------------------------------------|
A|----------------------------------------------------------------------|
E|-5p3---3-3-3-3-3--5p3---3-3-3-3-3--4p0-0-0-0-0-0--4p0-0-0-0-0-0-------|

e|----------------------------------------------------------------------|
B|----------------------------------------------------------------------|
G|----------------------------------------------------------------------|
D|----------------------------------------------------------------------|
A|----------------------------------------------------------------------|
E|-5-7---7-7h8p7-5--5-7---7-7h8p7-5--5-7---7-7h8p7-5--5-7---7-7h8p7-5---|


interlude: permanently strumming each note and listen when to slide up 
e|----------------------------------------------------------------------|
B|----------------------------------------------------------------------|
G|-11/13/16-------------------------------------------------------------|
D|----------------------------------------------------------------------|
A|----------------------------------------------------------------------|
E|----------------------------------------------------------------------|


chorus: x2
e|----------------------------------------------------------------------|
B|----------------------------------------------------------------------|
G|----------------------------------------------------------------------|
D|----------------------------------------------------------------------|
A|----------------------------------------------------------------------|
E|-5p3---3-3-3-3-3--5p3---3-3-3-3-3--4p0-0-0-0-0-0--4p0-0-0-0-0-0-------|

e|----------------------------------------------------------------------|
B|----------------------------------------------------------------------|
G|----------------------------------------------------------------------|
D|----------------------------------------------------------------------|
A|----------------------------------------------------------------------|
E|-5-7---7-7h8p7-5--5-7---7-7h8p7-5--5-7---7-7h8p7-5--5-7---7-7h8p7-5---|


end:
e|----------------------------------------------------------------------|
B|----------------------------------------------------------------------|
G|----------------------------------------------------------------------|
D|----------------------------------------------------------------------|
A|----------------------------------------------------------------------|
E|-5p3---3-3-3-3-3--5p3---3-3-3-3-3--4p0-0-0-0-0-0--4p0-0-0-0-0-0-------|

e|----------------------------------------------------------------------|
B|----------------------------------------------------------------------|
G|----------------------------------------------------------------------|
D|----------------------------------------------------------------------|
A|-7-9---9---7-9---9---7-9---9---7-9---9--6_----------------------------|
E|-5-7---7---5-7---7---5-7---7---5-7---7--4_----------------------------|


************************************


| _   let it ring
| /   slide up
| \   slide down
| h   hammer-on
| p   pull-off
| ~   vibrato
| +   harmonic
| x   Mute note
| b   Bend
| pb  Pre-bend
| br  Bend release
| pbr Pre-bend release
| brb Bend release bend

************************************
Tap to rate this tab
# A B C D E F G H I J K L M N O P Q R S T U V W X Y Z