Song name
# A B C D E F G H I J K L M N O P Q R S T U V W X Y Z

Blood Red Shoes - You Bring Me Down tab

Artist: Blood Red Shoes
Song: You Bring Me Down

Tabbed by: KarlosDaJackal

Intro x4 / Verse x4       2nd part of verse x 4
e|-----------------------|-------------------------------------------------|
B|----12-12--------------|----12-12----------------------------------------|
G|----xx-xx-12-12--------|----xx-xx-12-12----------------------------------|
D|----10-10-10-10-12-12--|----10-10-10-10----------------------------------|
A|----10-10-10-10-10-10--|----10-10-10-10----------------------------------|
E|-----------------------|----------------10-10----------------------------|

Pre Chorus x2
e|-------------------------------------------------------------------------|
B|-------------------------------------------------------------------------|
G|-------------------------------------------------------------------------|
D|----------10----------12-10-----------10----------12---------------------|
A|----12-12----12-12-12-----------12-12----12-12-12----5555555555555555----|
E|-------------------------------------------------------------------------|

Chorus x4
e|-------------------------------------------------------------------------|
B|-------------------------------------------------------------------------|
G|----2-----12-12-14-14-12-12-14-14-12-12-14-14-12-12-14-14----------------|
D|----2-----12-12-12-12-12-12-12-12-12-12-12-12-12-12-12-12----------------|
A|----0-x16----------------------------------------------------------------|
E|-------------------------------------------------------------------------|
       * x16 means play that chord 16 times
             

End of chorus1, leading into the interlude and for the wait later on. (i'm leaving..)
e|-------------------------------------------------------------------------|
B|-------------------------------------------------------------------------|
G|----2--------------------------------------------------------------------|
D|----2--------------------------------------------------------------------|
A|----0--------------------------------------------------------------------|
E|-------------------------------------------------------------------------|

Verse >> pre-chorus >> Chorus

Interlude x6
e|-------------------------------------------------------------------------|
B|-------------------------------------------------------------------------|
G|-------------------------------------------------------------------------|
D|----10-10-10-10-10-10-10-10-12-12-12-12-12-12-12-12----------------------|
A|-------------------------------------------------------------------------|
E|-------------------------------------------------------------------------|

Verse >> pre-chorus >> Chorus >> Interlude >> Chorus >> Chorus >> Wait >> Chorus



And your done!  This is my first tab upload, let me know if there are any corrections.
Tap to rate this tab
# A B C D E F G H I J K L M N O P Q R S T U V W X Y Z