Song name
# A B C D E F G H I J K L M N O P Q R S T U V W X Y Z

Blood Red Shoes - An Animal tab

I made this tab by ear and seeing their live performances. Enjoy:)
DISTORTION
(Intro)
e|---------------------------------------|
B|---------------------------------------|
G|-0-0-15---0-0-15---0-0-15-0-5-0-3~-0---|X2
D|---------------------------------------|
A|---------------------------------------|
E|---------------------------------------|

(Verse)
e|---------------------------------------|
B|---------------------------------------|
G|-0-0-15--0-0-15--0-0-15-0-5-0-3~-0-----|X4
D|---------------------------------------|
A|---------------------------------------|
E|---------------------------------------|

e|----------------------------------------|
B|----------------------------------------|
G|----------------------------------------|
D|--3-3-3-3-3-3-3-5-----------------------|
A|------------------3-3-3-3-1-1-----------|
E|------------------------------1-1-------|

e|---------------------------------|
B|---------------------------------|
G|-----3-----3-------3-0-5-0-3-0---|
D|---------------------------------|X4
A|---------------------------------|
E|-3-3---3-3-----3-3---------------|

e|----------------------------------------|
B|----------------------------------------|
G|----------------------------------------|
D|--3-3-3-3-3-3-3-5-----------------------|
A|------------------3-3-3-3-1-1-----------|
E|------------------------------1-1-------|

(Chorus)X4
e|--------------------------------------------------------------------------|
B|--------------------------------------------------------------------------|
G|--------------------------------------------------------------------------|
D|--------------------------------------------------------------------------|
A|--------------------------------------------------------------------------|
E|3-3-3-3-3-3-3-3/-11-11-11-11-11-11-11-11-12-8-8-8-13-13-13-13-15-15-15-15-|

(Fill)
e|---------------------------------------------------------------|
B|---------------------------------------------------------------|
G|-0-0-15-0-0-15--0-15-17-19-19-19-15-15-17-13-13-13-------------|
D|---------------------------------------------------------------|X2
A|---------------------------------------------------------------|
E|---------------------------------------------------------------|

(Verse 2)
e|---------------------------------------|
B|---------------------------------------|
G|-0-0-15--0-0-15--0-0-15-0-5-0-3~-0-----|X4
D|---------------------------------------|
A|---------------------------------------|
E|---------------------------------------|

e|----------------------------------------|
B|----------------------------------------|
G|----------------------------------------|
D|--3-3-3-3-3-3-3-5-----------------------|
A|------------------3-3-3-3-1-1-----------|
E|------------------------------1-1-------|

Play the chorus again but this time(If you want to play it) there is an added guitar that goes like this:

e|------------------------------------------------------------------------|
B|------------------------------------------------------------------------|
G|-12-15-17-15-12~----12-15-17-15-19~----12-15-17-15-17B^--15-17-15-12~---|
D|------------------------------------------------------------------------|
A|------------------------------------------------------------------------|
E|------------------------------------------------------------------------|

Play the fill 2 times normally, then play it like this:
e|-----------------------------------------------|
B|-----------------------------------------------|
G|-0-0-3-0-0-3--0-3-5-7-7-7-3-3-5-1-1-1----------|
D|-----------------------------------------------|
A|-----------------------------------------------|
E|-----------------------------------------------|

e|-----------------------------------------------|
B|-----------------------------------------------|
G|-0-0-3-0-0-3--0-3-5-7-7-9-9-15-15-17B^---------|
D|-----------------------------------------------|
A|-----------------------------------------------|
E|-----------------------------------------------|

(Last Chorus)Starts Quiet...
e|-----------------------------------|
B|-----------------------------------|
G|-----------------------------------|
D|-----------------------------------|
A|-----------------------------------|
E|--3~~~~~~/11~~~~12-8~~/13~~/15~~~--|

Play Chorus (with added guitar part)X3

Finally... end with
e|-----|
B|-----|
G|-----|
D|-----|
A|-----|
E|--3--|

Tap to rate this tab
# A B C D E F G H I J K L M N O P Q R S T U V W X Y Z