Song name
# A B C D E F G H I J K L M N O P Q R S T U V W X Y Z

Blood Red Shoes - An Animal tab

an animal

tabbed by : plasticman


intro x2
verse1 x4
e|----------------------------------|
B|----------------------------------|
G|-0-0-15b-0-0-15b-0-0-15b-0-5-0-3b-|
D|----------------------------------|
A|----------------------------------|
E|----------------------------------|


prechorus
e|-------------------|
B|-------------------|
G|-------------------|
D|-33333335----------|
A|---------3333/11---|
E|----------------11-|


verse2 x4
e|------------------------|
B|------------------------|
G|---3b--3b--3b-0-5-0-3b--|
D|------------------------|
A|------------------------|
E|-33--33--33-------------|

prechorus

chorus
e|-----------------------------------------------------------------------------|
B|-----------------------------------------------------------------------------|
G|-----------------------------------------------------------------------------|
D|-----------------------------------------------------------------------------|x2
A|-----------------------------------------------------------------------------|
E|-33333333/11-11-11-11-11-11-11-11/12/888/14-14-14-14/15-15-15-15-15-15-15-15-|


bridge1
e|------------------------------------------------------------|
B|------------------------------------------------------------|
G|-12-12-15b-12-12-15b-12-15-17-18-18-18-17-15-17-13-13-13-13-|x2
D|------------------------------------------------------------|
A|------------------------------------------------------------|
E|------------------------------------------------------------|

verse1

prechorus

chorus

bridge1

bridge2
e|-----------------------------------------|
B|-----------------------------------------|
G|-0-0-3b-0-0-3b-0-3-5-6-6-6-5-3-5-1-1-1-1-|x2
D|-----------------------------------------|
A|-----------------------------------------|
E|-----------------------------------------|

bridge3
e|------------------------------------------------------------------------------|
B|------------------------------------------------------------------------------|
G|-0/8/9/5/11/12----------------------------------------------------------------|
D|------------------------------------------------------------------------------|
A|------------------------------------------------------------------------------|
E|------------------------------------------------------------------------------|
clean

chorus

end on E|-3-|
Tap to rate this tab
# A B C D E F G H I J K L M N O P Q R S T U V W X Y Z