Song name
# A B C D E F G H I J K L M N O P Q R S T U V W X Y Z

Blood Red Shoes - Speech Coma tab

-------------------------------------------------------------------------------
                             SPEECH COMA - BLOOD RED SHOES
-------------------------------------------------------------------------------


Tuning:

The conversations with myself
Screaming out words in which I felt
It’s like I’ve been tied down
There’s only one way out

e|---------------------------------------------------------------------------|
B|---------------------------------------------------------------------------|
G|---------------------------------------------------------------------------|
D|---------------------------------------------------------------------------|
A|---------------------------------------------------------------------------|
E|--9------9/6------6/2------2/9---------------------------------------------|

I can’t get the words out, I can’t get the words out
                             It’s like someone cut out my tongue

e|---------------------------------------------------------------------------|
B|---------------------------------------------------------------------------|
G|---------------------------------------------------------------------------|
D|--11-11-11-11-11-11-11-----6-/-7-7-7-7-7-7-7-7-----------------------------|
A|--11-11-11-11-11-11-11-----6-/-7-7-7-5-7-7-7-7-----------------------------|
E|--9--9--9--9--9--9--9------4-/-5-5-5-5-5-5-5-5-----------------------------|

I can’t get the words out, I can’t get the words out
                           It’s like someone cut out my tongue

e|---------------------------------------------------------------------------|
B|---------------------------------------------------------------------------|
G|---------------------------------------------------------------------------|
D|--4-4-4-4-4-4-4-4-4------11-11-11-11-11-11-11-11-11------------------------|
A|--4-4-4-4-4-4-4-4-4------11-11-11-11-11-11-11-11-11------------------------|
E|--2-2-2-2-2-2-2-2-2------9--9--9--9--9--9--9--9--9-------------------------|

It seems my moth has been stitched closed
                                    The heavy weights lay on my throat

e|---------------------------------------------------------------------------|
B|---------------------------------------------------------------------------|
G|---------------------------------------------------------------------------|
D|--11-11-11-11-11-11-11-11-11------8-8-8-8-8-8-8-8-8-8-8-8------------------|
A|--11-11-11-11-11-11-11-11-11------8-8-8-8-8-8-8-8-8-8-8-8------------------|
E|--9--9--9--9--9--9--9--9--9-------6-6-6-6-6-6-6-6-6-6-6-6------------------|

The air has been stripped out
                              There’s only one way out

e|---------------------------------------------------------------------------|
B|---------------------------------------------------------------------------|
G|---------------------------------------------------------------------------|
D|--4-4-4-4-4-4-4-4-4-4-------11-11-11-11-11-11-11-11-11---------------------|
A|--4-4-4-4-4-4-4-4-4-4-------11-11-11-11-11-11-11-11-11---------------------|
E|--2-2-2-2-2-2-2-2-2-2-------9--9--9--9--9--9--9--9--9----------------------|

I can’t get the words out, I can’t get the words out
                             It’s like someone cut out my tongue

e|---------------------------------------------------------------------------|
B|---------------------------------------------------------------------------|
G|---------------------------------------------------------------------------|
D|--11-11-11-11-11-11-11-----6-/-7-7-7-7-7-7-7-7-----------------------------|
A|--11-11-11-11-11-11-11-----6-/-7-7-7-5-7-7-7-7-----------------------------|
E|--9--9--9--9--9--9--9------4-/-5-5-5-5-5-5-5-5-----------------------------|

I can’t get the words out, I can’t get the words out
                           It’s like someone cut out my tongue

e|---------------------------------------------------------------------------|
B|---------------------------------------------------------------------------|
G|---------------------------------------------------------------------------|
D|--4-4-4-4-4-4-4-4-4------11-11-11-11-11-11-11-11-11------------------------|
A|--4-4-4-4-4-4-4-4-4------11-11-11-11-11-11-11-11-11------------------------|
E|--2-2-2-2-2-2-2-2-2------9--9--9--9--9--9--9--9--9-------------------------|

SOLO

e|---------------------------------------------------------------------------|
B|---------------------------------------------------------------------------|
G|---------------------------------------------------------------------------|
D|---------------------------------------------------------------------------|
A|---------------------------------------------------------------------------|
E|---7-9-9-9^-9^-9^-9^-9^-9-9----7-9-9-9-9-9^-9^-9^-9^-9^-9-9----------------|

e|---------------------------------------------------------------------------|
B|---------------------------------------------------------------------------|
G|---------------------------------------------------------------------------|
D|---------------------------------------------------------------------------|
A|---------------------------------------------------------------------------|
E|---12-14-14-14^-14^-14^-14^-14^----12-14-14-14^-14^-14^-14^-14^------------|

e|---------------------------------------------------------------------------|
B|---------------------------------------------------------------------------|
G|---------------------------------------------------------------------------|
D|---------------------------------------------------------------------------|
A|---12-14-14-14^-14^-14^-14^-14^-----17--16---------------------------------|
E|---------------------------------------------------------------------------|

I can’t get the words out, I can’t get the words out
                             It’s like someone cut out my tongue
 
e|---------------------------------------------------------------------------|
B|---------------------------------------------------------------------------|
G|---------------------------------------------------------------------------|
D|--11-11-11-11-11-11-11-----6-/-7-7-7-7-7-7-7-7-----------------------------|
A|--11-11-11-11-11-11-11-----6-/-7-7-7-5-7-7-7-7-----------------------------|
E|--9--9--9--9--9--9--9------4-/-5-5-5-5-5-5-5-5-----------------------------|

I can’t get the words out, I can’t get the words out
                           It’s like someone cut out my tongue

e|---------------------------------------------------------------------------|
B|---------------------------------------------------------------------------|
G|---------------------------------------------------------------------------|
D|--4-4-4-4-4-4-4-4-4------11-11-11-11-11-11-11-11-11------------------------|
A|--4-4-4-4-4-4-4-4-4------11-11-11-11-11-11-11-11-11------------------------|
E|--2-2-2-2-2-2-2-2-2------9--9--9--9--9--9--9--9--9-------------------------|


************************************

| /   slide up
| \   slide down
| h   hammer-on
| p   pull-off
| ~   vibrato
| +   harmonic
| x   Mute note
| b   Bend
| pb  Pre-bend
| br  Bend release
| pbr Pre-bend release
| brb Bend release bend

************************************
Tap to rate this tab
# A B C D E F G H I J K L M N O P Q R S T U V W X Y Z