Song name
# A B C D E F G H I J K L M N O P Q R S T U V W X Y Z

Blood Red Shoes - Its Getting Boring By The Sea tab

-------------------------------------------------------------------------------
			     It's Getting Boring By The Sea - Blood Red Shoes
-------------------------------------------------------------------------------
Tabbed by: Rory
Email: rory426@hotmail.co.uk

Tuning: standard

INTRO

e|-----------------------------------------------------------------------------|
B|-----------------------------------------------------------------------------|
G|-----------------------------------------------------------------------------|
D|-----------------------------------------------------------------------------|
A|-----------------------------------------------------------------------------|
E|-9-------keep playing this note, with delay ---------------------------------|

VERSE

e|---------------------------------------------------------------------------|
B|---------------------------------------------------------------------------|
G|---------------------------------------------------------------------------|
D|---------------------------------------------------------------------------|
A|---------------------------------------------------------------------------|
E|-9-9-0-9-9-9-0-9-9-9-0-9-9-9-0-9-9-9-0-9-9-9-0-9-9-9-0-9-9-9-0-0-----------|

e|---------------------------------------------------------------------------|
B|---------------------------------------------------------------------------|
G|---------------------------------------------------------------------------|
D|---------------------------------------------------------------------------|
A|---------------------------------------------------------------------------|
E|-5-5-x-5-5-5-x-5-5-5-x-5-5-5-x-5-5-5-x-5-5-5-x-5-5-2-2-2-3-3-0-0-----------|

CHORUS

e|---------------------------------------------------------------------------|
B|---------------------------------------------------------------------------|
G|---------------------------------------------------------------------------|
D|---------------------------------------------------------------------------|
A|-------7-7--------------7-7-99-10--10--10-10-10-9-7--7-7--777-7-7777-------|
E|-9-9-9-----9--9-9--99-9----------------------------------------------------|


That's it really, with a few of these towards the end:

e|---------------------------------------------------------------------------|
B|---------------------------------------------------------------------------|
G|---------------------------------------------------------------------------|
D|---------------------------------------------------------------------------|
A|---------------------------------------------------------------------------|
E|-3-3-3-2-0-0-0/12-12-12-12-12-12-------------------------------------------|

Easy, but good fun to play!


| /  slide up
| \  slide down
| h  hammer-on
| p  pull-off
| ~  vibrato
| +  harmonic
| x  Mute note
===============================================================================
Tap to rate this tab
 
# A B C D E F G H I J K L M N O P Q R S T U V W X Y Z