Guitaretab - guitar tabs
Song name
# A B C D E F G H I J K L M N O P Q R S T U V W X Y Z

Blood Red Shoes - I Wish I Was Someone Better tab

Blood Red Shoes - "I wish I was someone better" (20 Oct 07)

Amazing song, especially because they're only a two piece

edit 25 Oct 07: "The bridge/Outro bit was wrong, she doesnt play a D, its an E...  (i 
a mistake... bad pun intended)"


edit "whatever date today is": You should be able to tell by listening to it where the 
string notes are played.
And eh, I changed the build/outro bit, from an A to an A#

 Intro/Chorus:
|-----------------------------------------------------------------|
|-----------------------------------------------------------------|
|-----------------------------------------------------------------|
|--9-9-9-9-9-9-9-9---12-12-12--9-9-9-9-9--------------------------|
|--9-9-9-9-9-9-9-9---12-12-12--9-9-9-9-9--------------------------|
|--7-7-7-7-7-7-7-7---10-10-10--7-7-7-7-7--------------------------|

|-----------------------------------------------------------------|
|-----------------------------------------------------------------|
|-----------------------------------------------------------------|
|--8-8-8-8-8-8-8-8---5-5-5-5-5-5-5-5------------------------------|
|--8-8-8-8-8-8-8-8---5-5-5-5-5-5-5-5------------------------------|
|--6-6-6-6-6-6-6-6---3-3-3-3-3-3-3-3------------------------------|


 Pre-Verse:
|-----------------------------------------------------------------|
|-----------------------------------------------------------------|
|-----------------------------------------------------------------|
|-----------------------------------------------------------------|
|-----------------------------------------------------------------|
|--7--7--7--7/-10--10--10--10/-5--5--5--5---5-3-0-0-2-0-3-0-------|


 Verse:
|-----------------------------------------------------------------|
|-----------------------------------------------------------------|
|-----------------------------------------------------------------|
|-----------------------------------------------------------------|
|-----------------------------------------------------------------|
|--7--7--7--7/-10--10--10--10/-5--5--5--5/-3--3--3--3-------------|
[ Tab from: http://www.guitaretab.com/b/blood-red-shoes/97610.html ]
 Bridge (and 2nd Pre-Verse):
|-----------------------------------------------------------------|
|-----------------------------------------------------------------|
|-----------------------------------------------------------------|
|--9~----8~--9~-----8~--5~--5-5-5-4~--4/-7-7-7--------------------|
|--9~----8~--9~-----8~--5~--5-5-5-4~--4/-7-7-7--------------------|
|--7~--0-6~--7~---0-6~--3~--3-3-3-2~--2/-5-5-5--------------------|

 Build up:
|-----------------------------------------------------------------|
|-----------------------------------------------------------------|
|-----------------------------------------------------------------|
|-----------------------------------------------------------------|
|-----------------------------------------------------------------|
|-7-7-7-7-7-7-7-7--0-0-0-6-6-6-6-6-(x2)---------------------------|

|-----------------------------------------------------------------|
|-----------------------------------------------------------------|
|-----------------------------------------------------------------|
|-----------------------------------------------------------------|
|-----------------------------------------------------------------|
|-3-3-3-3-3-3-3-3-3-3-3-3-3-3-3-3-2-2-2-2-2-2-2-2-5-5-5-5-5-5-5-5-|

 Outro:
|-----------------------------------------------------------------|
|-----------------------------------------------------------------|
|-----------------------------------------------------------------|
|-9-9-9-9-9-9-9----------8-8-8-8-8--------------------------------|
|-9-9-9-9-9-9-9----------8-8-8-8-8--------------------------------|
|-7-7-7-7-7-7-7---0-0-0--6-6-6-6-6-(x2)---------------------------|

|-----------------------------------------------------------------|
|-----------------------------------------------------------------|
|-----------------------------------------------------------------|
|-5-5-5-5-5-5-5-5-5-5-5-5-5-5-5-5-4-4-4-4-4-4-4-4-7-7-7-7-7-7-7-7-|
|-5-5-5-5-5-5-5-5-5-5-5-5-5-5-5-5-4-4-4-4-4-4-4-4-7-7-7-7-7-7-7-7-|
|-3-3-3-3-3-3-3-3-3-3-3-3-3-3-3-3-2-2-2-2-2-2-2-2-5-5-5-5-5-5-5-5-|

|-----------------------------------------------------------------|
|-----------------------------------------------------------------|
|-----------------------------------------------------------------|
|-9---------------------------------------------------------------|
|-9---------------------------------------------------------------|
|-7---------------------------------------------------------------|


Im 99% sure its correct, "hairypineapple@hotmail.com" if im wrong

Intro x2
Chorus x4
Pre-Verse x2
Verse x 4
Chorus x4
Pre-Verse x2 (This Pre-verse is actually the bridge played once)
Verse x4
Chorus x4
Bridge x2
Build up x2
Outro x4
Related for I Wish I Was Someone Better tab