Song name
# A B C D E F G H I J K L M N O P Q R S T U V W X Y Z

Blood Red Throne - Demand tab

-------------------------------------------------------------------------------
			     DEMAND  Blood Red Throne
-------------------------------------------------------------------------------
Tabbed by: Evan W.
Email: evwads2000@yahoo.com

Tuning: D Standard
    
|-----------------------------------------|Riff 1
|-----------------------------------------|
|-----------------------------------------|Both Guitars
|-----------------------------------------|
|----7-4-----7-4-----7-4-----7-4-7/10-10--| 
|000-----000-----000-----000--------------| x2
 ...     ...     ...     ...
    
    
|-----------------------------------------|Riff 1a
|-----------------------------------------|
|-----------------------------------------|Guitar 1
|-----------------------------------------|    
|----7-4-----7-4-----7-4-----7-4-7/10-10--| 
|000-----000-----000-----000--------------| x2
 ...     ...     ...     ...
|-----------------------------------------|
|-----------------------------------------|
|-----------------------------------------|Guitar 2
|----9-6-----9-6-----9-6-----9-6-9/12-12--|
|-----------------------------------------|
|000-----000-----000-----000--------------| x2
 ...     ...     ...     ...
    

    
|-----------------------------------------|Riff 2
|-----------------------------------------|
|-----------------------------------------|Both Guitars
|-----------------------------------------|
|----7-4-----7-4-----7-4-----7p4-4\1-1----| 
|000-----000-----000-----000--------------| x2
...     ...     ...     ...
    

|-----------------------------------------|Riff 2a
|-----------------------------------------|
|-----------------------------------------|Guitar 1
|-----------------------------------------|    
|----7-4-----7-4-----7-4-----7p4-4\1-1----| 
|000-----000-----000-----000--------------| x2
 ...     ...     ...     ...
|-----------------------------------------|
|-----------------------------------------|
|-----------------------------------------|Guitar 2
|----9-6-----9-6-----9-6-----9p6-6\3-3----|
|-----------------------------------------|
|000-----000-----000-----000--------------|x2
 ...     ...     ...     ...
 
 
 Riff 3
|-----------------------------------------------------|
|-----------------------------------------------------|
|-----------------------------------------------------|Both Guitars
|-----------------------------------------------------|
|3/6-6\5-5\4-4\3--2--6-6-6-5-5-5-5-4-4-4-4-3-3-3---|
|1/4444\3333\2222\1110--4-4-4-3-3-3-3-2-2-2-2-1-1-1---|x2
    ..   ..   ..   ..   . . . . . . . . . . . . . .

 Riff 4
|------------------------------------------------------------|
|------------------------------------------------------------|
|------------------------------------------------------------|Guitar 1
|------------------------------------------------------------|
|----------4-------------7-------------4---------------------|
|0-000-0h3---3-0-000-3s6---6-0-000-0h3---3-0-444-3-3-2-2-2---|x1
 . ...         . ...         . ...         . ... . . . . .

 Riff 4a
|------------------------------------------------------------|
|------------------------------------------------------------|
|------------------------------------------------------------|Guitar 1
|------------------------------------------------------------|
|----------4-------------7-------------4---------------------|
|0-000-0h3---3-0-000-3s6---6-0-000-0h3---3-0-444-3-3-2-2-2---|x1
 . ...         . ...         . ...         . ... . . . . .
|------------------------------------------------------------|
|------------------------------------------------------------|
|------------------------------------------------------------|Guitar 2
|---------4--------------7-------------4---------------------|
|---------3--------------6-------------3---0-444-3-3-2-2-2---|x1
                                           . ... . . . . .
 Riff 4 Both Guitars x2
                 ______________     ______________   _____________
 Riff 5         |1,3              |2               |4
|------------------------------------------------------------------|
|------------------------------------------------------------------|
|------------------------------------------------------------------|Both
|------------------5\4---------------5\4-------3-------------------|Guitars
|2-----------2-----3\2---------------3\2-------1-------------------|
|0-0-1-3-4-3-0---0----0-3-4-3-1----0-----0-3-4-----444-3-3-2-2-2---|x2
   . . . . .     .    . . . . .    .     . . .     ... . . . . .

 Riff 4 Both Guitars x2
 
 Riff 4b
|------------------------------------------------------------|
|------------------------------------------------------------|
|------------------------------------------------------------|Guitar 1
|------------------------------------------------------------|
|----------4-------------7-------------4---------------------|
|0-000-0h3---3-0-000-3s6---6-0-000-0h3---3-0-444-3-3-2-2-2---|x2
 . ...         . ...         . ...         . ... . . . . .
|------------------------------------------------------------|
|------------------------------------------------------------|
|----------6-------------9-------------6---------------------|Guitar 2
|------2s5---5-------5s8---8-------2s5---5-------------------|
|0-000---------0-000---------0-000---------0-444-3-3-2-2-2---|x2
 . ...         . ...         . ...         . ... . . . . .

 Riff 5 Both Guitars x2

 Riff 3 Both Guitars x2

 Riff 6
|-----------------|
|-----------------|
|-----------------|Guitar 1
|-----------------|
|2---5---2--5-6---|
|0---3---0--3-4---|x4

|-----------------|
|----0------------|
|----0------------|Guitar 2
|----2------------|
|-----------------|
|-----------------|x4

 Riff 6b
|----------------------|
|----------------------|
|----------------------|Guitar 1
|----------------------|
|2---5---2-5-6---|
|0---3---0-3-4---|x4

|----------------------|
|----------------------|
|----------------------|Guitar 2
|-----5-------5-6---|
|-----7-------7-8---|
|0--------0----------|x4

 Riff 7
|-----------------------|
|-----------------------|
|-----------------------|Both Guitars
|-----------------------|
|------------------7---|
|0-34--0-34------|x4

 Solo
|---------------------------------------------------------|
|16~-16~-16~-16~-16-15---15-14---14-13---13-12------------|
|---------------------15------14------13------12-13*bar---|Guitar 1
|---------------------------------------------------------|
|---------------------------------------------------------|
|---------------------------------------------------------|

 Solo Backing
|---------------------------------------------------------|
|---------------------------------------------------------|
|---------------------------------------------------------|Guitar 2
|---------------------------------------------------------|
|6---5---4---3-------6-------5-------4-------3---2--------|
|4---3---2---1---44444---33333---22222---11111---0--------|
                 ....    ....    ....    ....
 Riff 4 Guitar 1 x1
 
 Riff 4a x1

 Riff 4 Both Guitars x2

 Riff 4b x2

 Riff 8
|--------------------|
|--------------------|
|--------------------|Both Guitars
|--------------------|
|--------------------|
|0-3-0-3-4---|x4

 Riff 6b x4

 Ending
|-------|
|-------|
|-------|Both Guitars
|-------|
|-2-----|
|-0-----|


| /  slide up
| \  slide down
| h  hammer-on
| p  pull-off
| ~  vibrato
| +  harmonic
| x  Mute note
| .  palm mute
|   tremolo picking
| *  pinch harmonic
===========================================================================
Tap to rate this tab
# A B C D E F G H I J K L M N O P Q R S T U V W X Y Z