Song name
# A B C D E F G H I J K L M N O P Q R S T U V W X Y Z

Blood Sweat And Tears - Lisa tab

The is just the intro solo from this sweet song. It's really easy...

e------------------------------------------------|
B-14----------------12-------14-12---------------|
G--------11h14-11-14--11-14---------12-11-9-9----|
D----14------------------------------------------|
A------------------------------------------------|
E------------------------------------------------|

e------------------------------------|
B-------12-14-12---------------------|
G-11-14----------14-11---------------|
D----------------------14--11--------|
A------------------------------14----|
E------------------------------------|

e-------------------------14-12----------------|
B-14----------------------------14p12----------|
G----14------------12-----------------12-12----|
D-------11h14-11-14--11-14---------------------|
A----------------------------------------------|
E----------------------------------------------|

There it is. I pretty sure it's right. Enjoy...
Tap to rate this tab
 
# A B C D E F G H I J K L M N O P Q R S T U V W X Y Z