Song name
# A B C D E F G H I J K L M N O P Q R S T U V W X Y Z

Blood Sweat And Tears - Go Down Gambling tab

Help us improve GuitareTab! Take a short survey!
-------------------------------------|
-------------------------------------|
-------------------------------------|
-----5-5----5-5------5-5---------5-5-|
-----------------3h5---------3h5-----|
----3-----5--------------6-3---------|
that is the main lick... it repeats all over the song then alternbates with c major
------------------------------------|
----5-------------------------------|
----5-------------------------------|
----5-------------------------------|
----3-------------------------------|
------------------------------------|

if you want the solos tabbed post a comment otherwise i wont bother adding it
Related for Go Down Gambling tab