Song name
# A B C D E F G H I J K L M N O P Q R S T U V W X Y Z

Blood Sweat And Tears - Go Down Gamblin tab

I tabbed this song earlier and now im just going back and adding the solos.  thisis the 
solo that comes up:

----------15--14b--14--11-----------------12h14p12----14b-----|
------/15-----------------14--12----12h14----------14---------|
------/15-----------------------------------------------------|
--------------------------------------------------------------|
--------------------------------------------------------------|
--------------------------------------------------------------|
--------------------------------------------------------------|


---14p12--15-12----------------------------------------|
----------------15-12-------12-14b-14b-14b-14b-14br-12-|
----------------------12-14----------------------------|
-------------------------------------------------------|
-------------------------------------------------------|
-------------------------------------------------------|
Tap to rate this tab
# A B C D E F G H I J K L M N O P Q R S T U V W X Y Z