Song name
# A B C D E F G H I J K L M N O P Q R S T U V W X Y Z

Bloodbath - Brave New Hell tab

Band: Bloodbath
Album: Nightmares made Flesh
Song: Brave New Hell

Copyright (c) Dan Swanφ, 2004
Version 1, 11/4/2010

*************************
*** READ THIS READ IT ***
*************************
This is a Drop A 'tweaking' of the 5 star tab by Hypocrite.
There is a section in this tab which I'm convinced cannot be played in
B Standard, starting at the bride ~2:13 in the song so I'm re-tabbing
this to accommodate drop A tuning.

I've made some other tweaks that are minor during the refrain but other
than that this is very much Hypocrite's tab that I think is now closer to 100%.

As a side note please don't question the tab unless you're playing it with
appropriate strings. Anything less than .12's will yield questionable results at this
as the string tension is so weak that the slightest bend will change the note at least a
step. I've been playing along with .13's (E string is a .56) for months and I assure you 
tweaked version is more accurate.
*************************
*************************

*** DROP A Edit - Darkling83 ***
*** Transcribed by Darkling83 ***
*** Original B Standard transcribed by: Hypocrite ***

Suffixes for bend:
fb - full bend       hb - half bend
qb - quarter bend    t - tap bend
^ - Hold bend        r - release bend
~ - vibrato bend

Suffixes for harmonic:
ph - pinched harmonic      nh – natural harmonic
ah – artificial harmonic   hh – harp harmonic

Suffixes for mute:
. – palm mute            x – staccato mute
, - light palm mute      ; - heavy palm mute

Other:
/ - slide up to            \ - slide down to
h - hammer on              p - pull off
‘ - sustained note         * - see comment
" - tremolo note           <> - Trill
L – left channel only      R – right channel only
= - 12 string guitar part

Tuning AEADF#B

Intro 2x
|-----------------------------------------------------------------------------|
|-----------------------------------------------------------------------------|
|-----------------------------------------------------------------------------|
|--------------------------------------------------------------9-10-9~---9----|
|-2--2-2-2-3--2-3-6--2--2-2-2-3--6-5-3--2--2-2-2-3--2-3-6----7--------10---8--|
|-2--2-2-2-3--2-3-6--2--2-2-2-3--6-5-3--2--2-2-2-3--2-3-6---------------------|
     . . .    .         . . .              . . .

Verse x2
|-------------------------------------------------------------------------|
|-------------------------------------------------------------------------|
|-----------------------------0-2-3-2-------------------------------------|
|----------0-2-3-2-----------------------------0-2-3-2--------------------|
|-------------------11111111---------------------------11111111-----------|
|-22222222----------------------------22222222------------------5-7-8-7---|


Riff 1 x4
|--------------------------|
|--------------------------|
|--------------------------|
|------3-----------5-------|
|-2--2-1---6-5-3---3-4-4---|
|-2--2-----6-5-3-----4-4---|
     .     . .

Refrain(part1) x2
|--------------------------------------------------------------------------|
|--------------------------------------------------------------------------|
|--------------------------------------------------------------------------|
|--------------------------------------------------------------------------|
|-------------------2233222222222222222--------------------2-2-2---2-3-2---|
|-666666665555-2233----------------------666666665555-2233-2-2-2---2-3-2---|
                                                           . .     . .

Refrain(part2) x2
|---------------------------------------------------|
|---------------------------------------------------|
|---------------------------------------------------|
|-------------4-5-4---------------------------------|
|-6----5--2-3-2-3-2-----6----5--2-3-2-2-2---2-3-2---|
|-6----5--2-3-----------6----5--2-3-2-2-2---2-3-2---|
          . .                   . . . .     . .

Intro 2x
|-----------------------------------------------------------------------------|
|-----------------------------------------------------------------------------|
|-----------------------------------------------------------------------------|
|--------------------------------------------------------------9-10-9~---9----|
|-2--2-2-2-3--2-3-6--2--2-2-2-3--6-5-3--2--2-2-2-3--2-3-6----7--------10---8--|
|-2--2-2-2-3--2-3-6--2--2-2-2-3--6-5-3--2--2-2-2-3--2-3-6---------------------|
     . . .    .         . . .              . . .

Verse x2
|-------------------------------------------------------------------------|
|-------------------------------------------------------------------------|
|-----------------------------0-2-3-2-------------------------------------|
|----------0-2-3-2-----------------------------0-2-3-2--------------------|
|-------------------11111111---------------------------11111111-----------|
|-22222222----------------------------22222222------------------5-7-8-7---|


Riff 1 x4
|--------------------------|
|--------------------------|
|--------------------------|
|------3-----------5-------|
|-2--2-1---6-5-3---3-4-4---|
|-2--2-----6-5-3-----4-4---|
     .     . .

Refrain(part1) x2
|--------------------------------------------------------------------------|
|--------------------------------------------------------------------------|
|--------------------------------------------------------------------------|
|--------------------------------------------------------------------------|
|-------------------2233222222222222222--------------------2-2-2---2-3-2---|
|-666666665555-2233----------------------666666665555-2233-2-2-2---2-3-2---|
                                                           . .     . .

Refrain(part2) x2
|---------------------------------------------------|
|---------------------------------------------------|
|---------------------------------------------------|
|-------------4-5-4---------------------------------|
|-6----5--2-3-2-3-2-----6----5--2-3-2-2-2---2-3-2---|
|-6----5--2-3-----------6----5--2-3-2-2-2---2-3-2---|
          . .                   . . . .     . .

Solo(part 1)
|----------------------------------------------------------------------|
|----------------------------------------------------------------------|
|----------------------------------------------------------------------| One
|----------------------------------------------------------------------|
|-0h7h10-0h7h10-0h7h10-0h6h90h6h9-0h7h10-0h7h10-0h7h10-0h11h130h11h13--|
|----------------------------------------------------------------------|

|-----------------------------------------------------------------|
|-----------------------------------------------------------------|
|-----------------------------------------------------------------|  Guitar Two
|--------------------------------------------------------------3--|
|-2---------------------------1----2---------------------------1--|
|-2---------------------------1----2------------------------------|

----------------------------------------------------------------------|
----------------------------------------------------------------------|
----------------------------------------------------------------------|  One
----------------------------------------------------------------------|
-0h7h10-0h7h10-0h7h10-0h6h90h6h9--0h7h10-0h7h10-0h7h10-0h11h130h11h13-|
----------------------------------------------------------------------|

----------------------------------------------------------------------|
----------------------------------------------------------------------|
----------------------------------------------------------------------|  Guitar Two
------------------------------------------------------------------3-3-|
-2----------------------------1----2--------------------------2-2-1-1-|
-2----------------------------1----2--------------------------2-2-----|
                                                              . . . .

Solo(part 2) x2
|----------------------------------------------------------------------|
|----------------------------------------------------------------------|
|----------------------------------------------------------------------|  One
|----------------------------------------------------------------------|
|-0h7h10-0h7h10-0h7h10-0h6h90h6h9-0h7h10-0h7h10-0h7h10-0h11h130h11h13--|
|----------------------------------------------------------------------|
|
|----------------------------------------------------------------------|
|----------------------------------------------------------------------|
|----------------------------------------------------------------------|   Two
|--------------------------------------------------------------3-------|
|-2------2------2------2--1-------2------2------2-------2------1-------|
|-2------2------2------2--1-------2------2------2-------2--------------|
  .      .      .      .          .      .      .       .
----------------------------------------------------------------------|
----------------------------------------------------------------------|
----------------------------------------------------------------------|  One
----------------------------------------------------------------------|
-0h7h10-0h7h10-0h7h10-0h6h90h6h9--0h7h10-0h7h10-0h7h10-0h11h130h11h13-|
----------------------------------------------------------------------|

----------------------------------------------------------------------|
----------------------------------------------------------------------|
----------------------------------------------------------------------|  Two
----------------------------------------------------------------------|
--2-----2------2------2--1--------2------2------2------2------5-7-8-7-|
--2-----2------2------2--1--------2------2------2------2------5-7-8-7-|
  .     .      .      .           .      .      .      .      . . . .

Riff 2 x2
|---------------------------------------------------|
|---------------------------------------------------|
|---------------------------------------------------|
|--------------------3------------------------------|
|-2-2-2-2-1--2-2-2-2-1--2-2-2-2-1--2-2-2-2--5-7-8-7-|
|-2-2-2-2-1--2-2-2-2----2-2-2-2-1--2-2-2-2--5-7-8-7-|
  . . . .    . . . .    .          .

Riff 3 x2
|--------------------------------------------|
|--------------------------------------------|
|-----9-----9------------12----------15------|       Guitar One (clean)
|---8-----8---8-------11----11----14----14---|
|-7-----7-------7--10----------13------------|
|--------------------------------------------|

|--------------------------------------------|
|--------------------------------------------|
|--------------------------------------------|            Guitar Two
|--------------------------------------------|
|-2-2--------------X///////////////////////--|
|-2-2--------------X///////////////////////--|
  . .

Riff 4 x8
|--------------------------------------------|
|--------------------------------------------|
|-----9-----9------------12----------15------|        Guitar One (clean)
|---8-----8---8-------11----11----14----14---|
|-7-----7-------7--10----------13------------|
|--------------------------------------------|

(Shape your fingers like a G chord and use your ring finger on the 3rd string for the sweep)
|--------------------------------------------|
|--------------------------------------------|
|--------------------------------------------|             Guitar Two
|------------------------5-----------8-------|
|-2-2---2-2-----------4-----4-----7-----7----|
|-2-2---2-2--------5-----------8-------------|
  . .   .
[Solo Missing]

Intro 2x
|-----------------------------------------------------------------------------|
|-----------------------------------------------------------------------------|
|-----------------------------------------------------------------------------|
|--------------------------------------------------------------9-10-9~---9----|
|-2--2-2-2-3--2-3-6--2--2-2-2-3--6-5-3--2--2-2-2-3--2-3-6----7--------10---8--|
|-2--2-2-2-3--2-3-6--2--2-2-2-3--6-5-3--2--2-2-2-3--2-3-6---------------------|
     . . .    .         . . .              . . .

Refrain(part1) x2
|--------------------------------------------------------------------------|
|--------------------------------------------------------------------------|
|--------------------------------------------------------------------------|
|--------------------------------------------------------------------------|
|-------------------2233222222222222222--------------------2-2-2---2-3-2---|
|-666666665555-2233----------------------666666665555-2233-2-2-2---2-3-2---|
                                                           . .     . .

Refrain(part2) x2
|---------------------------------------------------|
|---------------------------------------------------|
|---------------------------------------------------|
|-------------4-5-4---------------------------------|
|-6----5--2-3-2-3-2-----6----5--2-3-2-2-2---2-3-2---|
|-6----5--2-3-----------6----5--2-3-2-2-2---2-3-2---|
          . .                   . . . .     . .
and fade out
Tap to rate this tab
# A B C D E F G H I J K L M N O P Q R S T U V W X Y Z