Song name
# A B C D E F G H I J K L M N O P Q R S T U V W X Y Z

Bloodbath - Eaten tab

Song:	"Eaten" 
Artist:	Bloodbath
Album: 	Nightmares Made Flesh
Tabbed by: Darkling83

Drop A tuning

A E A D F# B


. = Palm Mute
x = Dead note. Think Octave Chord
' = tremolo pick
/ = slide
h = hammer on

A E A D F# B
intro Riff 1 (x2)
|------------------------------------------------|
|------------------------------------------------|
|------------------------------------------------|
|------------------------------------------------|
|---0----6---5----6-0-6-4---0----6---5---6---4-1-|
|---0--0---0----0-6-0-6-4---0--0---0---0-6-0-4-1-|
           .        .              .       . 

Riff 2A (x4)                             End 1,3    End 2,4
|-------------------------------------|---------|---------|
|-------------------------------------|---------|---------|
|-------------------------------------|--8/11---|--5/8----|
|-------------------------------------|--xxx----|--xxx----|
|---4--3--1-0-1-0-1-3--4--3--1-0-1-0--|--6/9----|--3/6----|
|---4--3--1-0-1-0-1-3--4--3--1-0-1-0--|---------|---------|
          . . . . . .        . . . .


Chorus Riff 3 (x4) (Eateeeeeeeeen)
|----------------------------------------|
|----------------------------------------|
|----------------------------------------|
|----------------------------------------|
|---1-0-0-0-650-540-43-0--0-0-3---0--6---|
|---1-0-0-0-650-540-43-0--0-0-3---0--6---|
        . .   .   .       . .     .



Riff 4-A (x4) over solo then continues with both guitars 
|-----------------------------------|
|-----------------------------------|
|-----------------------------------|
|-----------------------------------| 
|---3/4-0-0-0-0-3/4-0-0-0-0-6-4-----|
|---3/4-0-0-0-0-3/4-0-0-0-0-6-4-----|
        . . . .     . . . .

|-----------------------------------|
|-----------------------------------|
|-----------------------------------|
|-----------------------------------| 
|---3/4-0-0-0-0-3/4-0-0-0-0-4-1-----|
|---3/4-0-0-0-0-3/4-0-0-0-0-4-1-----|
        . . . .     . . . . 

Intro Riff 1 (x2)

Riff 2-B (x1)
|------------------------------------------|
|------------------------------------------|
|-----------------8/11---------------------|
|-----------------xxx----------------------|
|---4--3--1-0-1-0-6/9--4--3--1-0-1-0-0-1-x-|
|---4--3--1-0-1-0------4--3--1-0-1-0-0-1-x-|
          . . . .            . . . . . .

|------------------------------------------|
|------------------------------------------|
|-----------------5/8----------------------|
|-----------------xxx----------------------|
|---4--3--1-0-1-0-3/6--4--3--1-0-1-0-1-3---|
|---4--3--1-0-1-0------4--3--1-0-1-0-1-3---|
          . . . .            . . . . . .

Chorus Riff 3 (x4)

Riff 5 - acoustic (still iffy but sounds good)
|----4---5-------4------4---5--------4----------|
|--3---3-------3---3--3---3--------3---3--------|
|-----------------------------------------------|
|-----------------------------------------------| 
|-----------------------------------------------|
|-----------------------------------------------|


|----5---4-----6---------5---4-----6------------|
|--4---4-----4---------4---4-----4--------------|
|-----------------------------------------------|
|-----------------------------------------------| 
|-----------------------------------------------|
|-----------------------------------------------|

Riff 6a (when it joins acoustic lead) x2
Guitar 1
|----4---5-------4------4---5--------4----------|
|--3---3-------3---3--3---3--------3---3--------|
|-----------------------------------------------|
|-----------------------------------------------| 
|-----------------------------------------------|
|-----------------------------------------------|

Guitar 2
|-----------------------------------------------|
|-----------------------------------------------|
|-----------------------------------------------|
|-----------------------------------------------| 
|--0--------------------------------------------|
|--0--------------------------------------------|

Guitar 1
|----5---4-----6---------5---4-----6------------|
|--4---4-----4---------4---4-----4--------------|
|-----------------------------------------------|
|-----------------------------------------------| 
|-----------------------------------------------|
|-----------------------------------------------|

Guitar 2
|-----------------------------------------------|
|-----------------------------------------------|
|-----------------------------------------------|
|-----------------------------------------------| 
|--6--------------------------------------------|
|--6--------------------------------------------|

Riff 6b  (x2)
Guitar 1
|----4---5-------4------4---5--------4----------|
|--3---3-------3---3--3---3--------3---3--------|
|-----------------------------------------------|
|-----------------------------------------------| 
|-----------------------------------------------|
|-----------------------------------------------|

Guitar 2 			(only played the second iteration)
|--------------------------------|--------------|
|--------------------------------|--------------|
|--------------------------------|--------------|
|--------------------------------|--------------| 
|--0-0-----------------0-0-------|----0-0-------|
|--0-0-----------------0-0-------|----0-0-------|
   . .                 . .            . .

Guitar 1
|----5---4-----6---------5---4-----6------------|
|--4---4-----4---------4---4-----4--------------|
|-----------------------------------------------|
|-----------------------------------------------| 
|-----------------------------------------------|
|-----------------------------------------------|

Guitar 2
|-----------------------------------------------|
|-----------------------------------------------|
|-----------------------------------------------|
|-----------------------------------------------| 
|--6--------------------------------------------|
|--6--------------------------------------------|

Then under the solo for Guitar 2, listen for timing
|------------------------------------------------------|
|------------------------------------------------------|
|------------------------------------------------------|
|-------------------------------------fade-in----------| 
|---0--6--0--6--0-0------------------------------------|
|---0--6--0--6--0-0--------------000000000000000000----|
                . .              ..................


Intro Riff 1 (x2)
Chorus Riff 3 (x4)
Tap to rate this tab
# A B C D E F G H I J K L M N O P Q R S T U V W X Y Z