Song name
# A B C D E F G H I J K L M N O P Q R S T U V W X Y Z

Bloodbath - Mass Strangulation tab

http://bloodbath.biz

		      Bloodbath - Mass Strangulation
	      From the Album - Resurrection Through Carnage
		      Version 1.0 - April - 2003
		      Transcribed by: Jon Hosick

For Questions, Comments, Newest Version, or Corrections contact
Jon H. at foreverblindedbyfear@hotmail.com

Tuning: B (All strings down 2.5 steps)

0:02 to 0:43
|-------------------|
|-------------------|
|-------------------|
|-4-5-5-4-4/7-7-4---|
|-2-3-3-2-2/5-5-2---|
|-------------------|

0:43 to 1:17

|------------------------|
|------------------------|
|------------------------|
|-2--5--4--7--6--2--5--4-|
|-2--5--4--7--6--2--5--4-|
|-0--3--2--5--4--0--3--2-|

1:17 to 1:33
|-------------------|
|-------------------|
|-------------------|
|-4-5-5-4-4/7-7-4---|
|-2-3-3-2-2/5-5-2---|
|-------------------|

1:33 to 2:06
|------------------------|
|------------------------|
|------------------------|
|-2--5--4--7--6--2--5--4-|
|-2--5--4--7--6--2--5--4-|
|-0--3--2--5--4--0--3--2-|

2:07 to 2:56
|----------------------------------------------------------------|
|----------------------------------------------------------------|
|----------------------------------------------------------------|
|-2-------------3-3-2-2------------------2-----------------------|
|-2-------------------------2---3----3---2---------6-6-5-5-------|
|-0-0-0-0-0-0-0---------3-0-0-1---1----1-0-4-4-3-3---------4-4-3-|

2:56 to 3:29
|-------------------|
|-------------------|
|-------------------|
|-4-5-5-4-4/7-7-4---|
|-2-3-3-2-2/5-5-2---|
|-------------------|

3:30 to 3:31
|-----|
|-----|
|-----|
|-2-2-|
|-2-2-|
|-0-0-|

Leads:

Played During the Verse
|-24---20---------20----|
|---24----22---------22-|
|------------22-21------|
|-----------------------|
|-----------------------|
|-----------------------|

2:23 to 2:55
|------------------------------------------------------------|
|-15/\-15/\-15/\-15-15-15-15-15/\-15/\-15/\-15/\-12-13-12-13-|
|-16/\-16/\-16/\-16-16-16-16-16/\-16/\-16/\-16/\-13-14-13-14-|
|------------------------------------------------------------|
|------------------------------------------------------------|
|------------------------------------------------------------|
I'm not really sure about this part....
Tap to rate this tab
 
# A B C D E F G H I J K L M N O P Q R S T U V W X Y Z