Guitaretab - guitar tabs
Song name
# A B C D E F G H I J K L M N O P Q R S T U V W X Y Z

Bloodbath - Furnace Funeral tab

Band:  (Bloodbath)
Album: (Breeding Death EP)
Song:  (Furnace Funeral)

Copyright (c) (Century Media) (2000)
Version 1.0 - (May 2, 2005)

Transcribed By: (Brad P)
Email:          (inverted_vertigo@hotmail.com)


.  - palm mute           /  - slide up to
\  - slide down to       ~  - vibrato
h  - hammer on           b  - Bend
p  - pull off            Suffixes for bend
t  - tap                 f  - full bend    h - half bend
ph - pinched harmonic    q  - quarter bend t - tap bend
*  - see comment         ^  - Hold bend    r release bend
x  - Stuccatto           ~  - vibrato bend
,  - slight palm mute    () - ghost note, sustained note
"  - tremolo note        <> - Trill


Tuning: B E A D F# B

Written in standard. I'm positive this is 99% right.

Riff 1:
E----------------------------|----------------------------|
B----------------------------|----------------------------|
G----------------------------|----------------------------|
D----------77----------------|----------------------------|
A-2-4-4-55-55-8-8-8--3-1-0---|-4-4-4-55-77-8-8-8--1-3-----|
E-2-2-2-33----6-6-6--------3-|-2-2-2-33-55-6-6-6------0-2-| 
pm.           .                  .           .

Riff 2:    Part A                 
E------------------------------------------------|
B------------------------------------------------|
G------------------------------------------------|
D------------------------------------------------|
A-4--4-4-4--4--4-4-4--4--4-4-4---7------6---5----|
E-2--2-2-2--2--2-2-2--2--2-2-2-----8-7----7---6--|   
pm.  . . .  .  . . .  .  . . .       

Riff 2: Part B             
E------------------------------------------------|
B------------------------------------------------|
G------------------------------------------------|
D---------------------------------------5--------|
A-4--4-4-4--4--4-4-4--4--4-4-4---5/4\5--3--3-----|
E-2--2-2-2--2--2-2-2--2--2-2-2---3/2\3-----1-----| 
pm.  . . .  .  . . .  .  . . .       
[ Tab from: http://www.guitaretab.com/b/bloodbath/48795.html ]
Riff 2: Part C               
E------------------------------------------------|
B------------------------------------------------|
G------------------------------------------------|
D------------------------------------------------|
A-4--4-4-4--4--4-4-4--4--4-4-4---5/4\5---5~------|
E-2--2-2-2--2--2-2-2--2--2-2-2---3/2\3---3~------| 
pm.  . . .  .  . . .  .  . . .       




Riff 3:   Part A                         
E--------------------------------------|
B--------------------------------------|
G--------------------------------------|
D-----5-5------------------------------|
A-4-4-3-3------------------------------|
E-2-2-------6666-3333-6666-2222-5555---|
    .   .     (these are all 16th notes)           

Riff 3: Part B
E----------------|----------------|
B----------------|----------------|
G----------------|----------------|
D----------------|----------------|
A9999999999999999|3333333333333333|
E----------------|----------------|
   

E----------------|----------------|
B----------------|----------------|
G----------------|----------------|
D----------------|----------------|
A----------------|----------------|
E2222222222222222|6666666666666666|
   

Riff 4:
E---------------------------|
B---------------------------|
G---------------------------|
D-5-4----11\4---------------|
A-3-2----9-\2--3-2-3---2-3--|
E-----32-------------3------| x's 8
pm    ..       . . . . . .


Riff 5: Under Keyboard Interlude.              
E--------------|
B--------------|
G--------------|
D-4------------|
A-4------------|
E-2--let-ring--|

E-------------------------------------------------|
B-------------------------------------------------|
G------7---9---------7----9----4---9--------------|
D-4----7---9----4----7----9----4---9---7---4------|
A-4----5---7----2----5----7----2---7---5---4------|
E-2----5---7----2----5----7----2---7---5---2--etc.|


End:
E---------|
B---------|
G---------|
D-------5-|
A---4---3-|
E-0-2-0---|
pm.   .

Riff 1 (4X)
Riff 2 Part A (2X)
Riff 2 Part B (1X)
Riff 2 Part C (1X)
Riff 2 Part B (1X)
Riff 2 Part A (1X)
Riff 2 Part B (1X)
Riff 2 Part C (1X)
Riff 2 Part B (1X)
Riff 2 Part A (1X)
Riff 3 Part A (6X)
Riff 3 Part B (2X)
Riff 3 Part A (4X)
Riff 3 Part B (2X)
Riff 4(8X)
Riff 1 Part A (2X)
Riff 2 Part B (1X)
Riff 2 Part C (1X)
Riff 2 Part B (1X)
Riff 2 Part A (1X)
Riff 2 Part B (1X)
Riff 2 Part C (1X)
Riff 2 Part B (1X)
Riff 2 Part A (1X)
Riff 3 Part A (6X)
Riff 3 Part B (2X)
Riff 3 Part A (6X)
Riff 3 Part B (2X)
Riff 5
Riff 3 Part A (6x)
Riff 3 Part B (2X)
End
Related for Furnace Funeral tab