Song name
# A B C D E F G H I J K L M N O P Q R S T U V W X Y Z

Bloodbath - Brave New Hell tab

#----------------------------------PLEASE NOTE---------------------------------#
#This file is the author's own work and represents their interpretation of the #
#song. You may only use this file for private study, scholarship, or research. #
#------------------------------------------------------------------------------#



Transcribed by hauntedinflames

	



Gtr I (B Gb B E Ab Db) - 'Untitled'
Gtr II (B Gb B E Ab Db) - 'Untitled'
Gtr III (B Gb B E Ab Db) - 'Untitled'

    Q=145
    $
   4/4
    Gtrs I, II
    E S S E Q  E E E   E S S E Q  E E E   E S S E Q  E E E   E E E Q  E E E
||-------------------|------------------|------------------|-----------------||
||o------------------|------------------|------------------|----------------o||
||-------------------|------------------|------------------|-7---------------||
||----------1----1-4-|---------1--4-3-1-|---------1----1-4-|---7-8-7--3-6-2--||
||o-0-0-0-0-1--0-1-4-|-0-0-0-0-1--4-3-1-|-0-0-0-0-1--0-1-4-|-5--------------o||
||--0-0-0-0-1--0-1-4-|-0-0-0-0-1--4-3-1-|-0-0-0-0-1--0-1-4-|---7-8-7--3-6-2--||


    S S S S S S S S S S S S S S S S   S S S S S S S S S S S S S S S S
||----------------------------------|---------------------------------|
||o---------------------------------|---------------------------------|
||----------------------------------|---------------------------------|
||----------------------------------|-----------------3-3-5-5-6-6-5-5-|
||o-----------------3-3-5-5-6-6-5-5-|---------------------------------|
||--0-0-0-0-0-0-0-0-----------------|-6-6-6-6-6-6-6-6-----------------|


  S S S S S S S S S S S S S S S S   S S S S S S S S S S S S S S S S
|---------------------------------|-----------------------------------||
|---------------------------------|----------------------------------o||
|---------------------------------|-----------------------------------||
|---------------------------------|-----------------------------------||
|-----------------3-3-5-5-6-6-5-5-|----------------------------------o||
|-0-0-0-0-0-0-0-0-----------------|-6-6-6-6-6-6-6-6-3-3-5-5-6-6-5-5---||


    Q  E Q.   E E   Q  E Q.   Q    Q  E Q.   E E   Q  E Q.   Q
||----------------|--------------|---------------|---------------||
||o---------------|--------------|---------------|--------------o||
||----------------|----2---------|---------------|----2----------||
||--0----6--------|-1--2-2----2--|-0----6--------|-1--2-2----2---||
||o-0--0-6----6-5-|-1--0-2----2--|-0--0-6----6-5-|-1--0-2----2--o||
||--0--0-6----6-5-|-1----2----2--|-0--0-6----6-5-|-1----2----2---||


    S S S S S S S S S S S S S S S S   S S S S S S S S S S S S S S S S
||----------------------------------|---------------------------------|
||o---------------------------------|---------------------------------|
||----------------------------------|---------------------------------|
||----------------------------------|---------------------------------|
||o---------------------------------|---------------------------------|
||--4-4-4-4-4-4-4-4-3-3-3-3-3-3-3-3-|-7-7-8-8-7-7-7-7-7-7-7-7-7-7-7-7-|


  S S S S S S S S S S S S S S S S   E E Q  E E Q
|---------------------------------|----------------||
|---------------------------------|---------------o||
|---------------------------------|----------------||
|---------------------------------|-----0------0---||
|---------------------------------|-0-1-0--0-1-0--o||
|-4-4-4-4-4-4-4-4-3-3-3-3-3-3-3-3-|-0-1-0--0-1-0---||


                                                     D.S.
            PM|                         PM|
    H    Q  E E   E E Q  H      H    Q  E E   E E Q  E E Q
||--------------|-------------|-------------|----------------||
||o-------------|-------------|-------------|---------------o||
||--------------|-------------|-------------|----------------||
||--4----3------|-7-8-7--7----|-4----3------|-----0------0---||
||o-4----3--3-3-|-7-8-7--7----|-4----3--3-3-|-0-1-0--0-1-0--o||
||--4----3--3-3-|-7-8-7--7----|-4----3--3-3-|-0-1-0--0-1-0---||


  Q=155
 4/4
  Gtr II
  |--3---| |-3-| |-3-| |-3-|   |--3---| |-3-| |-3-| |-3-|
  E E    E E E E E E E E E E   E E    E E E E E E E E E E
|----------------------------|----------------------------|
|----------------------------|----------------------------|
|----------------------------|----------------------------|
|----------------------------|----------------------6h9p6-|
|-5h8p===5-5h8p5-5h8p5-4h7p4-|-5h8p===5-5h8p5-5h8p5-------|
|----------------------------|----------------------------|
|
| Gtr I
| E   Q.         Q     Q       E   Q.         Q     Q
|----------------------------|----------------------------|
|----------------------------|----------------------------|
|----------------------------|----------------------------|
|-0--------------------3-----|-0--------------------6-----|
|-0--------------------4-----|-0--------------------6-----|
|-0--------------------3-----|-0--------------------6-----|


  |--3---| |-3-| |-3-| |-3-|   |--3---| |-3-| |--3--| |--3--|
  E E    E E E E E E E E E E   E E    E E E E E E   E E E   E
|----------------------------|-----------------------------------|
|----------------------------|-----------------------------------|
|----------------------------|-----------------------------------|
|----------------------------|------------------------6h9p==6----|
|-5h8p===5-5h8p5-5h8p5-4h7p4-|-5h8p===5-5h8p5-5h8p==5------------|
|----------------------------|-----------------------------------|
|
|                              PM             PM----------|
| E   Q.         Q     Q       E   Q.         E   E   E   E
|----------------------------|-----------------------------------|
|----------------------------|-----------------------------------|
|----------------------------|-----------------------------------|
|-0--------------------3-----|-0---------------------------------|
|-0--------------------4-----|-0--------------0---0---0---0------|
|-0--------------------3-----|-0--------------0---0---0---0------|


    |-3-|    |--3---| |--3---| |-3-|   |-3-|    |--3---| |--3---| |-3-|
    E E E    E E    E E    E E E E E   E E E    E E    E E    E E E E E
||-----------------------------------|----------------------------------|
||o----------------------------------|----------------------------------|
||-----------------------------------|----------------------------------|
||-----------------------------------|----------------------------6h9p6-|
||o-5h8p5----5h8p===5-5h===8p5-4h7p4-|-5h8p5----5h8p===5-5h===8p5-------|
||-----------------------------------|----------------------------------|
|
|   PM------------------|              PM------------------|
|   e.    e.     e.     e.     Q       e.    e.     e.     e.     Q
||-----------------------------------|----------------------------------|
||o----------------------------------|----------------------------------|
||-----------------------------------|----------------------------------|
||-----------------------------3-----|----------------------------6-----|
||o-0-----0------0------0------4-----|-0-----0------0------0------6-----|
||--0-----0------0------0------3-----|-0-----0------0------0------6-----|


  |-3-|    |--3---| |--3---| |-3-|   |-3-|    |--3--| |--3--| |--3--|
  E E E    E E    E E    E E E E E   E E E    E E   E E E   E E E   E
|----------------------------------|--------------------------------------||
|----------------------------------|-------------------------------------o||
|----------------------------------|--------------------------------------||
|----------------------------------|--------------------------6h9p==6-----||
|-5h8p5----5h8p===5-5h===8p5-4h7p4-|-5h8p5----5h8p==5-5h8p==5------------o||
|----------------------------------|--------------------------------------||
|
| PM------------------|              PM---------------------------|
| e.    e.     e.     e.     Q       e.    e.     E   E   E   E   E
|----------------------------------|--------------------------------------||
|----------------------------------|-------------------------------------o||
|----------------------------------|--------------------------------------||
|----------------------------3-----|--------------------------------------||
|-0-----0------0------0------4-----|-0-----0------0---0---0---0---0------o||
|-0-----0------0------0------3-----|-0-----0------0---0---0---0---0-------||


    Gtrs I, II
    PM-------|       PM-------|       PM-------|       PM------------|
    e. e. e. e. Q    e. e. e. e. Q    e. e. e. e. Q    e. e. E E E E E
||-----------------|----------------|----------------|------------------||
||o----------------|----------------|----------------|-----------------o||
||-----------------|----------------|----------------|------------------||
||--------------3--|-------------6--|-------------3--|------------------||
||o-0--0--0--0--4--|-0--0--0--0--6--|-0--0--0--0--4--|-0--0--0-0-4-3-1-o||
||--0--0--0--0--3--|-0--0--0--0--6--|-0--0--0--0--3--|-0--0--0-0-4-3-1--||


  Gtr III
  E E E  E E E E E   E  E E E  E  E  E  E
|------------------|----------------------|
|-----6------6-----|----------------------|
|-----7------7-----|---10-----13----------|
|---7------7---7---|------9------12----12-|
|-5------5-------5-|-8------8-------11----|
|------------------|----------------------|
|
| Gtrs I, II
| PM|
| E E H.             W
|------------------|----------------------|
|------------------|----------------------|
|------------------|----------------------|
|------------------|----------------------|
|-0-0--------------|----------------------|
|-0-0--------------|----------------------|


  E E E  E E E E E   E  E E E  E  E  E  E
|------------------|-----------------------|
|-----6------6-----|-----------------------|
|-----7------7-----|---10-----13-----------|
|---7------7---7---|------9------12----12--|
|-5------5-------5-|-8------8-------11-----|
|------------------|-----------------------|
|
| PM|
| E E H.             W
|------------------|-----------------------|
|------------------|-----------------------|
|------------------|-----------------------|
|------------------|-----------------------|
|-0-0--------------|-----------------------|
|-0-0--------------|-----------------------|


    E E E E E E E E   E  E E E  E  E  E  E
||------------------|----------------------|
||o-----6-----6-----|----------------------|
||------7-----7-----|---10-----13----------|
||----7-----7---7---|------9------12----12-|
||o-5-----5-------5-|-8------8-------11----|
||------------------|----------------------|
|
|   E E E E H         E  Q   E  E  Q     E
||------------------|----------------------|
||o-----------------|----------------------|
||------------------|----------------------|
||----------0-------|-3--3---3--6--6-----6-|
||o-0-0---0-0-------|-3--3---3--6--6-----6-|
||--0-0---0-0-------|-3--3---3--6--6-----6-|


  E E E E E E E E   E  E E E  E  E  E  E  4x
|-----------------|-----------------------||
|-----6-----6-----|----------------------o||
|-----7-----7-----|---10-----13-----------||
|---7-----7---7---|------9------12----12--||
|-5-----5-------5-|-8------8-------11----o||
|-----------------|-----------------------||
|
| E E E E H         E  Q   E  E  Q     E  4x
|-----------------|-----------------------||
|-----------------|----------------------o||
|-----------------|-----------------------||
|---------0-------|-3--3---3--6--6-----6--||
|-0-0---0-0-------|-3--3---3--6--6-----6-o||
|-0-0---0-0-------|-3--3---3--6--6-----6--||


  Q=145
  Gtr II
   ~~~~~~~~~~~~~~~~~                         ~~~~~~~~~~~~~~
   Q.          Q.       E  S  S    Q      E  E  +H
|-17b19-------15b17-------------|-------------------------|
|-19b21-------17b19----18-20-18-|-17-----20-14-(14)-------|
|----------------------19-21-19-|-18-----21-14-(14)-------|
|-------------------------------|-------------------------|
|-------------------------------|-------------------------|
|-------------------------------|-------------------------|
|
| Gtr I
|  E    S S E  Q     E  E  E       E S S  E  Q      E E E
|-------------------------------|-------------------------|
|-------------------------------|-------------------------|
|-------------------------------|-------------------------|
|--------------1--------1--4----|------------1------4-3-1-|
|--0----0-0-0--1-----0--1--4----|--0-0-0--0--1------4-3-1-|
|--0----0-0-0--1-----0--1--4----|--0-0-0--0--1------4-3-1-|


 ~~~~~~                                ~~~~~~~
   +Q       E  E  +H           Q    E  E  +H
|---------------------------|------------------------|
|-(14)-----15-11-(11)-------|-10---11-10-(10)--------|
|-(14)-----15-11-(11)-------|--9---10--9--(9)--------|
|---------------------------|------------------------|
|---------------------------|------------------------|
|---------------------------|------------------------|
|
|   E  S S  E  Q      E E E    E E  E  Q      E E E
|---------------------------|------------------------|
|---------------------------|------------------------|
|---------------------------|--7---------------------|
|--------------1--------1-4-|----7--8--7------3-6-2--|
|---0--0-0--0--1------0-1-4-|--5---------------------|
|---0--0-0--0--1------0-1-4-|----7--8--7------3-6-2--|


   S  S  S  S  S  S  S  S  S  S  S  S  S  S  S  S
|-------------------10----10-------13-17-13-13-16-|
|----------------10----10-------15----------------|
|----10-13-10-13-------------14-------------------|
|-12----------------------------------------------|
|-------------------------------------------------|
|-------------------------------------------------|
|
|  E     S  S  E     Q           E     E     E
|-------------------------------------------------|
|-------------------------------------------------|
|-------------------------------------------------|
|--------------------1-----------------1-----4----|
|--0-----0--0--0-----1-----------0-----1-----4----|
|--0-----0--0--0-----1-----------0-----1-----4----|


   S  S  S  S  S  S  S  S  S  S  S  S  S  S  S  S
|----13-17----13-16----13-17----13-16----13-17-----|
|-15-------15-------15-------15-------15-------15--|
|--------------------------------------------------|
|--------------------------------------------------|
|--------------------------------------------------|
|--------------------------------------------------|
|
|  E     S  S  E     Q           E     E     E
|--------------------------------------------------|
|--------------------------------------------------|
|--------------------------------------------------|
|--------------------1-----------4-----3-----1-----|
|--0-----0--0--0-----1-----------4-----3-----1-----|
|--0-----0--0--0-----1-----------4-----3-----1-----|


                                       ~~
   S  S  S  S  S  S  S  S  S  S  S  S  Q
|-12-16----12-17----12-16----12-17----16---|
|-------15-------15-------15-------15------|
|------------------------------------------|
|------------------------------------------|
|------------------------------------------|
|------------------------------------------|
|
|  E     S  S  E     Q           E     E E
|------------------------------------------|
|------------------------------------------|
|------------------------------------------|
|--------------------1-----------------1-4-|
|--0-----0--0--0-----1-----------0-----1-4-|
|--0-----0--0--0-----1-----------0-----1-4-|


   |--3--|  |--3--|  |--3--|  |--3--|  |--3--|  |--3--|  |--3--|  |--3--|
   S  S  S  S  S  S  S  S  S  S  S  S  S  S  S  S  S  S  S  S  S  S  S  S
|-24-22-20-19-17-15-17-----------------------------------------------------||
|-26-24-22-20-19-17-19-20-19-20-19-17-19-17----17--------------------------||
|----------------------21-19-21-19-18-19-18-19-18-19-18-19-18-16-18-16-15--||
|-------------------------------------------21----21-19-21-19-18-19-18-16--||
|--------------------------------------------------------------------------||
|--------------------------------------------------------------------------||
|
|  E        E        E        Q                 E        E        E
|--------------------------------------------------------------------------||
|--------------------------------------------------------------------------||
|--7-----------------------------------------------------------------------||
|-----------7--------8--------7-----------------3--------6--------2--------||
|--5-----------------------------------------------------------------------||
|-----------7--------8--------7-----------------3--------6--------2--------||


  Gtr II
   ~~~~~
   H                  H                 W
|-------------------------------------|----------------------------------|
|-17b19-------------------------------|----------------------------------|
|-18b20-------------------------------|----------------------------------|
|-------------------------------------|----------------------------------|
|-------------------------------------|----------------------------------|
|-------------------------------------|----------------------------------|
|
| Gtrs I, II
|  S    S S S S S S S S S S S S S S S   S S S S S S S S S S S S S S S S
|-------------------------------------|----------------------------------|
|-------------------------------------|----------------------------------|
|-------------------------------------|----------------------------------|
|-------------------------------------|----------------------------------|
|-------------------------------------|----------------------------------|
|--4----4-4-4-4-4-4-4-3-3-3-3-3-3-3-3-|-7-7-8-8-7-7-7-7-7-7-7-7-7-7-7-7--|


  S S S S S S S S S S S S S S S S   E E Q  E E Q
|---------------------------------|---------------|
|---------------------------------|---------------|
|---------------------------------|---------------|
|---------------------------------|-----0------0--|
|---------------------------------|-0-1-0--0-1-0--|
|-4-4-4-4-4-4-4-4-3-3-3-3-3-3-3-3-|-0-1-0--0-1-0--|


  S S S S S S S S S S S S S S S S   S S S S S S S S S S S S S S S S
|---------------------------------|----------------------------------|
|---------------------------------|----------------------------------|
|---------------------------------|----------------------------------|
|---------------------------------|----------------------------------|
|---------------------------------|----------------------------------|
|-4-4-4-4-4-4-4-4-3-3-3-3-3-3-3-3-|-7-7-8-8-7-7-7-7-7-7-7-7-7-7-7-7--|


  S S S S S S S S S S S S S S S S   E E Q  E E Q
|---------------------------------|---------------|
|---------------------------------|---------------|
|---------------------------------|---------------|
|---------------------------------|-----0------0--|
|---------------------------------|-0-1-0--0-1-0--|
|-4-4-4-4-4-4-4-4-3-3-3-3-3-3-3-3-|-0-1-0--0-1-0--|


            PM|                         PM|
    H    Q  E E   E E Q  H      H    Q  E E   E E Q  E E Q
||--------------|-------------|-------------|----------------||
||o-------------|-------------|-------------|---------------o||
||--------------|-------------|-------------|----------------||
||--4----3------|-7-8-7--7----|-4----3------|-----0------0---||
||o-4----3--3-3-|-7-8-7--7----|-4----3--3-3-|-0-1-0--0-1-0--o||
||--4----3--3-3-|-7-8-7--7----|-4----3--3-3-|-0-1-0--0-1-0---||



Duration Legend
---------------
W - whole; H - half; Q - quarter; E - 8th; S - 16th; T - 32nd; X - 64th; a - acciaccatura
+ - note tied to previous; . - note dotted; .. - note double dotted
Uncapitalized letters represent notes that are staccato (1/2 duration)
Irregular groupings are notated above the duration line
Duration letters will always appear directly above the note/fret number it represents the
duration for.  Duration letters with no fret number below them represent rests.  Multi-
bar rests are notated in the form Wxn, where n is the number of bars to rest for.  Low
melody durations appear below the staff

Tablature Legend
----------------
 h   - hammer-on
 p   - pull-off
 b   - bend
 pb  - pre-bend
 r   - bend release (if no number after the r, then release immediately)
 /\  - slide into or out of (from/to "nowhere")
 s   - legato slide
 S   - shift slide
 - natural harmonic
[n]  - artificial harmonic
n(n) - tapped harmonic
 ~   - vibrato
 tr  - trill
 T   - tap
 TP  - trem. picking
 PM  - palm muting
\n/  - tremolo bar dip; n = amount to dip
 \n  - tremolo bar down
 n/  - tremolo bar up
/n\  - tremolo bar inverted dip
 =   - hold bend; also acts as connecting device for hammers/pulls
 <> - volume swell (louder/softer)
 x   - on rhythm slash represents muted slash
 o   - on rhythm slash represents single note slash

Misc Legend
-----------
 |  - bar
||  - double bar
||o - repeat start
o|| - repeat end
*|  - double bar (ending)
 :  - bar (freetime)
 $  - Segno
 &  - Coda
Tempo markers -  = BPM(8/16=s8/s16), where s8 = swing 8ths, s16 = swing 16ths

Tap to rate this tab
# A B C D E F G H I J K L M N O P Q R S T U V W X Y Z