Song name
# A B C D E F G H I J K L M N O P Q R S T U V W X Y Z

Bloodbound - Moria tab

Artist: Bloodbound
Song: Moria - http://www.youtube.com/watch?v=h3Kbkv2p3bo&feature=related
Album: Unholy Cross
Year: 2011
Official pages: http://www.bloodbound.se/
Music/Lyrics: T. Olsson

Tunning: 1 step down

Riff A

1st Guitar
Tomas

D|---------------------------------------------------------------------|
A|---------------------------------------------------------------------|
F|---------------------------------------------------------------------| x2
C|------7-----7----------5-----5----------3----------------5-----5-----|
G|--5-5---5-5---5-5--3-3---3-3---3-3--1-1---1-----3----3-3---3-3---3-3-|
D|--------------------------------------------1-1---1------------------|

2nd Guitar
Henrik

D|---------------------------------------------------------------------|
A|---------------------------------------------------------------------|
F|---------------------------------------------------------------------|
C|------3-----3----------2-----2----------0----------------2-----2-----| x1
G|--5-5---5-5---5-5--3-3---3-3---3-3--1-1---1-----0----3-3---3-3---3-3-|
D|--------------------------------------------1-1---1------------------|

Choir
Patrik

D|---------------------------------------------------------------------|
A|---------------------------------------------------------------------|
F|---------------3--2--0-----------------------------------------------| 
C|-----3--2------------------------------------------------------------|
G|--5---------3--------------------------------------------------------|
D|---------------------------------------------------------------------|



Riff B

1st Guitar
Tomas

D|---------------------------------------------------------------------|
A|---------------------------------------------------------------------|
F|---------------------------------------------------------------------| 
C|-----------------------3-----3----------7-----7----------5-----5-----|
G|------3-----3------1-1---1-1---1-1--5-5---5-5---5-5--3-3---3-3---3-3-|
D|--1-1---1-1---1-1----------------------------------------------------|

2nd Guitar
Henrik

D|---------------------------------------------------------------------|
A|---------------------------------------------------------------------|
F|---------------------------------------------------------------------| 
C|-----------------------0-----0----------3-----3----------2-----2-----|
G|------0-----0------1-1---1-1---1-1--5-5---5-5---5-5--3-3---3-3---3-3-|
D|--1-1---1-1---1-1----------------------------------------------------|

Choir
Patrik

D|-----------------------------------------------|
A|------------3----------------------------------|
F|---2--3--5---------2---0--0--------------------| 
C|----------------3------------------------------|
G|-----------------------------------------------|
D|-----------------------------------------------|



Ending
Tomas & Henrik play only these chords
... horns of Moria!!!
D|-----------------------------------------------|
A|-----------------------------------------------|
F|------------7--5-------------------------------| 
C|------------7--5-------------------------------|
G|------------5--3-------------------------------|
D|-----------------------------------------------|



1) Riff A - Tomas x1
2) Riff A - Tomas & Henrik x1
3) Riff B - Tomas & Henrik x1
4) Riff A - Tomas, Henrik & Choir x1
5) Riff B - Tomas, Henrik & Choir x1
6) Riff A - Tomas, Henrik, Choir & Patrik x1
7) Riff B - Tomas, Henrik, Choir & Patrik x1
8) Riff A - Tomas, Henrik, Choir & Patrik x1
9) Riff B + Ending - Tomas, Henrik, Choir & Patrik x1

100% Correct
Tap to rate this tab
 
# A B C D E F G H I J K L M N O P Q R S T U V W X Y Z