Song name
# A B C D E F G H I J K L M N O P Q R S T U V W X Y Z

Bloodduster - Bigfatarse tab

SONG: BIGFATARSE
BAND: BLOODDUSTER
ALBUM: CUNT
YEAR: 2001

TABBED BY: DEEDS OF FLESH (hacked_up_for_bbq_@hotmail.com) (1/5/2002)

TUNING: D (one whole step down)

INTRO:
|----------|
|----------|
|----------|              LISTEN TO INTRO FOR RHYTHYM
|--6-66-66-|
|--6-66-66-|
|--4-44-44-|

RIFF 1
|-------------------------------|
|-------------------------------|
|-------------------------------|
|-------------------------------|
|-6-6-x-5-5-x-----------4-------|
|-4-4-x-3-3-x-1-0-1-2-3---3-----|    <--------use vibrato where nessecary on the last note of this riff

RIFF 2
|----------------|
|----------------|
|----------------|
|----------------|
|-2-x--3--x--4\3-|
|-0-x--1--x--2\1-|

RIFF 3
|-----------------------------------------------------|
|-----------------------------------------------------|
|-----------------------------------------------------|            
|--3h4p3h4--------------------------------------------|            
|----------------3h4p3h4--3h4p3h4--3h4p3h4------------|            
|-----------------------------------------------------|
pick all notes


I THINK THAT IS IT. ILL HAVE A LISTEN THIS AFTERNOON AND MAKE SURE. ANY COMMENTS, CORRECTIONS WOULD BE APPRECIATED, WE NEED MORE AUSSIE DEATH METAL TABS ON THE NET, I KNOW ABOUT 5 - 10 MORE SONGS BUT I WILL TYPE THEM UP AT A LATER DATE. ANY REQUESTS OF AUSTRALIAN DEATH TABS, EMAIL TO ME AND I SHOULD HAVE THEM DONE WITHIN THE WEEK. I AM ALSO THINKING ABOUT STARTING AN AUSTRALIAN GUITAR TAB WEBSITE, ANY INTERESTED PPL WHO CAN TAB AND WILL TAB GET IN CONTACT WITH ME, COULD BE WELL WORTH YOUR WHILE.
Tap to rate this tab
 
# A B C D E F G H I J K L M N O P Q R S T U V W X Y Z