Song name
# A B C D E F G H I J K L M N O P Q R S T U V W X Y Z

Bloodhound Dog - Discovery Channel tab

Help us improve GuitareTab! Take a short survey!
#----------------------------------PLEASE NOTE--------------------------------#
#This file is the author's own work and represents their interpretation of the#
#song. You may only use this file for private study, scholarship, or research.#
#-----------------------------------------------------------------------------#
#-- File created with Instab - http://www.pconline.com/~smcarey/instab.html --#
#-----------------------------------------------------------------------------#

Author/Artist: Bloodhound Gang
Title: Discovery Channel
Transcribed by: Peter Contreras
Email: Texasseminole@aol.com

I wanted to learn this song, and no one had tabbed it out yet so I took the intiative.  Enjoy, St. Louis style.

------------------------------------------------------------------------------|
------------------------------------------------------------------------------|
------------------------------------------------------------------------------|
------3--33------88-5--------------3------------------------------------------|
-33-6-------6-3-------8--3-66--3-6--------------------------------------------|
------------------------------------------------------------------------------|
                                      repeat one more time, then...

------------------------------------------------------------------------------|
------------------------------------------------------------------------------|
--5----8----------------------------------------------------------------------|
--5----8--8--6----------------------------------------------------------------|
--3----6--8--6----------------------------------------------------------------|
----------6--4----------------------------------------------------------------|
  These power chords each eight times, muted for verse, not for chorus.thats

------------------------------------------------------------------------------|
------------------------------------------------------------------------------|
------------------------------------------------------------------------------|
------------------------------------------------------------------------------|
------------------------------------------------------------------------------|
------------------------------------------------------------------------------|
 just about it, just repeat those power chords.  Keep on humping.
Related for Discovery Channel tab