Song name
# A B C D E F G H I J K L M N O P Q R S T U V W X Y Z

Bloodhound Gang - Hefty Fine tab

This is not my work, credit goes to those who tabbed these great songs, i just
compiled them to have the album all in one place.
===============================================================================
  	 Balls Out Tab by Bloodhound Gang, www.Ultimate-Guitar.Com

----------------------------------------------------------------------------
			     BALLS OUT - Bloodhound Gang
----------------------------------------------------------------------------
Tabbed by: Stumaster18
Email: ??
Tuning: Drop D - (low to high) D A D G B e

sick new song by the Bloodhound Gang. One of my favourites off of the new album. really
and straight forward though. I't's pretty much the entire thing for the whole song. It
out with..

e|---------------------------|
B|---------------------------|
G|---------------------------|play this 8 times, then...
D|---------------------------|
A|---------------------------|
E|-1-0-0--0-1-0-0--0-1-0-0-0-|

e|---------------------------|
B|---------------------------|
G|---------------------------|play for, pretty much, the rest of the song.
D|---------------------------|
A|-1-0-0--0-1-0-0--0-1-0-0-0-|
E|-1-0-0--0-1-0-0--0-1-0-0-0-|

and thats it. lol. not too hard, I think you can get it. suchhhh a sick song though.
=============================================================================
song. F.U.C.K
album. hefty fine
eat shit

intro clean
|------------------------------------------------------------------|
|------------------------------------------------------------------|
|-------3-3---1--------3-3------------3-3----1-----------4-4---3---|
|--4-4-------------1-1-------4-------------------------------------| 2x
|---------------------------------1-1-------------4-4--------------|
|------------------------------------------------------------------|

Verse (clean)
|-----------------------------------------|
|-----------------------------------------|
|-----------33xx33xx----------------------| x4  Chorus or
|-----------11xx11xx--33xx33xx--66xx66xx--|
|-44xx44xx------------11xx11xx--44xx44xx--|
|-22xx22xx--------------------------------|

last time on verse
|---------------|
|---------------|
|---------------|
|--6X-X-X-X-X-X-|
|--4X-X-X-X-X-X-|
|---------------|


Pre-Chorus (distortion)
|-----------------------------------------------------------------------|
|-----------------------------------------------------------------------|
|-4444444444444444----------666666--44444444444444--888888--6666666-----|
|-4444444444444444--444444--666666--44444444444444--888888--6666666----|
|-2222222222222222--444444--444444--22222222222222--666666--4444444-----|
|-------------------222222----------------------------------------------|

gtr2
|-----------|------------|------------|------------|
|-----------|------------|------------|------------|
|-----------|--88888888--|--33333333--|--66666666--|
|-44444444--|--88888888--|--33333333--|--66666666--| x2
|-44444444--|--66666666--|--11111111--|--44444444--|
|-22222222--|------------|------------|------------|
  foxtrot   -  Unifrom   -  Charlie   -   Kilo

(clean)
|------------------------------------------------------------------|
|------------------------------------------------------------------|
|-------3-3---1--------3-3------------3-3----1-----------4-4---3---|
|--4-4-------------1-1-------4-------------------------------------| 2x
|---------------------------------1-1-------------4-4--------------|
|------------------------------------------------------------------|

Verse (clean)
|-----------------------------------------|
|-----------------------------------------|
|-----------33xx33xx----------------------| x4
|-----------11xx11xx--33xx33xx--66xx66xx--|
|-44xx44xx------------11xx11xx--44xx44xx--|
|-22xx22xx--------------------------------|

last time on verse
|---------------|
|---------------|
|---------------|
|--6X-X-X-X-X-X-|
|--4X-X-X-X-X-X-|
|---------------|


Pre-Chorus (distortion)
|-----------------------------------------------------------------------|
|-----------------------------------------------------------------------|
|-4444444444444444----------666666--44444444444444--888888--6666666-----|
|-4444444444444444--444444--666666--44444444444444--888888--6666666----|
|-2222222222222222--444444--444444--22222222222222--666666--4444444-----|
|-------------------222222----------------------------------------------|

gtr 2
|-----------|------------|------------|------------|
|-----------|------------|------------|------------|
|-----------|--88888888--|--33333333--|--66666666--|
|-44444444--|--88888888--|--33333333--|--66666666--| x2
|-44444444--|--66666666--|--11111111--|--44444444--|
|-22222222--|------------|------------|------------|
  foxtrot   -  Unifrom   -  Charlie   -   Kilo

Outro

gtr 1 (distrotion)
|------------------------------------------------------------------|
|------------------------------------------------------------------|
|-------3-3---1--------3-3------------3-3----1-----------4-4---3---|
|--4-4-------------1-1-------4-------------------------------------| 2x
|---------------------------------1-1-------------4-4--------------|
|------------------------------------------------------------------|

Outro gtr 2
|-----------|------------|------------|------------|
|-----------|------------|------------|------------|
|-----------|--88888888--|--33333333--|--66666666--|
|-44444444--|--88888888--|--33333333--|--66666666--| x2
|-44444444--|--66666666--|--11111111--|--44444444--|
|-22222222--|------------|------------|------------|
  PUT THE YOU KNOW WHAT... IN THE YOU KNOW WERE

outro (both guitars)
|------|
|------|
|------|   PRONTO.....
|-4~~--|
|-4~~--|
|-2~~--|

ADAM BURHAN!
=============================================================================
----------------------------------------------------------------------------
I'm the Least You Could Do - Bloodhound Gang
----------------------------------------------------------------------------
Tabbed by: Stumaster18
Email:??
Tuning: Standard Tuning

sounds absolutely perfect to me! PPLEASE RATE!!! what a good song!!!

Intro: (after a thing of piano)
e|-----------------------------|
B|-----------------------------|
G|-----------------------------| x2
D|---------------8-(x8)--------|
A|-3-(x8)-6-(x8)-6------8-(x8)-|
E|-1------4-------------6------|

**no guitar throughout the entire 1st verse, post-verse, or 2nd verse**

Chorus:
e|-----------------|
B|-----------------|
G|-5---------------| x2
D|-5-------6-------|
A|-3-(x24)-6-(x24)-|
E|---------4-------|

e|---------------------------------|
B|---------------------------------|
G|-----------------8---------------| x2
D|-3-------6-------8-(x12)-8-------|
A|-3-(x12)-6-(x12)-6-------8-(x12)-|
E|-1-------4---------------6-------|


Post-Chorus:
e|-----------------|
B|-----------------|
G|-5---------------| x2
D|-5-------6-------|
A|-3-(x24)-6-(x24)-|
E|---------4-------|


Verse/Chorus
e|-----------------|
B|-----------------|
G|-5---------------| x4
D|-5-------6-------|
A|-3-(x24)-6-(x24)-|
E|---------4-------|

e|---------------------------------|
B|---------------------------------|
G|-----------------8---------------| x4
D|-3-------6-------8-(x12)-8-------|
A|-3-(x12)-6-(x12)-6-------8-(x12)-|
E|-1-------4---------------6-------|

Chorus/Outro:
e|---------------------------------|
B|---------------------------------|
G|-----------------8---------------| x4
D|-3-------6-------8-(x12)-8-------|
A|-3-(x12)-6-(x12)-6-------8-(x12)-|
E|-1-------4---------------6-------|

end. eff. messed up so many times in making this. but enjoy!!! sounds perfect to me!!! byeeee
=============================================================================
-------------------------------------------------------------------------------
		     FARTING WITH A WALKMAN ON - Bloodhound Gang
-------------------------------------------------------------------------------
Tabbed by: ShanZE
Email: shanze.bfs@luukku.com

Verse (Clean) x2
I know you're gonna play me					  When you get wind
e|---------------------------------------------------------------------------|
B|---------------------------------------------------------------------------|
G|---------------------------------------------------------------------------|
D|--------------(4)-9--9-----9--9--9-----9--9--9-----9--9--9-----9--6--6-----|
A|--------------(4)-9--9-----9--9--9-----9--9--9-----9--9--9-----9--6--6-----|
E|--------------(2)-7--7-----7--7--7-----7--7--7-----7--7--7-----7--4--4-----|
				   I heard you're full of shit, so
e|-------------------------------------------------------------------------|
B|-------------------------------------------------------------------------|
G|-------------------------------------------------------------------------|
D|-6--6--6-----6--6--6-----6--6--6-----6--9--9-----9--9--9-----9--9--9-----|
A|-6--6--6-----6--6--6-----6--6--6-----6--9--9-----9--9--9-----9--9--9-----|
E|-4--4--4-----4--4--4-----4--4--4-----4--7--7-----7--7--7-----7--7--7-----|
	I've been duped again					But if you cover your ass
e|-------------------------------------------------------------------------|
B|-------------------------------------------------------------------------|
G|-------------------------------------------------------------------------|
D|-9--9--9-----9--6--6-----6--6--6-----6--6--6-----6--6--6-----6--4--4-----|
A|-9--9--9-----9--6--6-----6--6--6-----6--6--6-----6--6--6-----6--4--4-----|
E|-7--7--7-----7--4--4-----4--4--4-----4--4--4-----4--4--4-----4--2--2-----|
					With the same old song
e|-------------------------------------------------------------------------|
B|-------------------------------------------------------------------------|
G|-------------------------------------------------------------------------|
D|-4--4--4-----4--4--4-----4--4--4-----4--6--6-----6--6--6-----6--6--6-----|
A|-4--4--4-----4--4--4-----4--4--4-----4--6--6-----6--6--6-----6--6--6-----|
E|-2--2--2-----2--2--2-----2--2--2-----2--4--4-----4--4--4-----4--4--4-----|
	You might as well be farting, Farting     with a walkman on
e|-------------------------------------------------------------------------|
B|-------------------------------------------------------------------------|
G|-------------------------------------------------------------------------|
D|-6--6--6-----6--4--4-----4--4--4-----4--2--2-----2--2--2-----2--9--9-----|
A|-6--6--6-----6--4--4-----4--4--4-----4--2--2-----2--2--2-----2--9--9-----|
E|-4--4--4-----4--2--2-----2--2--2-----2--0--0-----0--0--0-----0--7--7-----|
			    I know you're gonna...
e|---------------------------------------|
B|---------------------------------------|
G|---------------------------------------|
D|-9--9--9-----9--4--4-----4--4--4-----4-|
A|-9--9--9-----9--4--4-----4--4--4-----4-|
E|-7--7--7-----7--2--2-----2--2--2-----2-|
                                       ^this is the same as the one at start of this tab

Verse (Distortion) x2 (Lyrics only once)
...play me				        When you get wind
e|---------------------------------------------------------------------------|
B|---------------------------------------------------------------------------|
G|---------------------------------------------------------------------------|
D|-9--9--9--9--9--9--9--9--9--9--9--9--9--9--9--9--6--6--6--6--6--6--6--6--6-|
A|-9--9--9--9--9--9--9--9--9--9--9--9--9--9--9--9--6--6--6--6--6--6--6--6--6-|
E|-7--7--7--7--7--7--7--7--7--7--7--7--7--7--7--7--4--4--4--4--4--4--4--4--4-|
 I heard you're full of shit so                        I've been duped again
e|---------------------------------------------------------------------------|
B|---------------------------------------------------------------------------|
G|---------------------------------------------------------------------------|
D|-6--6--6--6--6--6--6--9--9--9--9--9--9--9--9--9--9--9--9--9--9--9--9--6--6-|
A|-6--6--6--6--6--6--6--9--9--9--9--9--9--9--9--9--9--9--9--9--9--9--9--6--6-|
E|-4--4--4--4--4--4--4--7--7--7--7--7--7--7--7--7--7--7--7--7--7--7--7--4--4-|
                       But if you cover your ass
e|---------------------------------------------------------------------------|
B|---------------------------------------------------------------------------|
G|---------------------------------------------------------------------------|
D|-6--6--6--6--6--6--6--6--6--6--6--6--6--6--4--4--4--4--4--4--4--4--4--4--4-|
A|-6--6--6--6--6--6--6--6--6--6--6--6--6--6--4--4--4--4--4--4--4--4--4--4--4-|
E|-4--4--4--4--4--4--4--4--4--4--4--4--4--4--2--2--2--2--2--2--2--2--2--2--2-|
With the same old song				   You might as well be farting
e|---------------------------------------------------------------------------|
B|---------------------------------------------------------------------------|
G|---------------------------------------------------------------------------|
D|-4--4--4--4--4--6--6--6--6--6--6--6--6--6--6--6--6--6--6--6--6--4--4--4--4-|
A|-4--4--4--4--4--6--6--6--6--6--6--6--6--6--6--6--6--6--6--6--6--4--4--4--4-|
E|-2--2--2--2--2--4--4--4--4--4--4--4--4--4--4--4--4--4--4--4--4--2--2--2--2-|
            Farting   with a walkman   on                            Give me a
e|---------------------------------------------------------------------------|
B|---------------------------------------------------------------------------|
G|---------------------------------------------------------------------------|
D|-4--4--4--4--2--2--2--2--2--2--2--2--9--9--9--9--9--9--9--9--4--4--4--4--4-|
A|-4--4--4--4--2--2--2--2--2--2--2--2--9--9--9--9--9--9--9--9--4--4--4--4--4-|
E|-2--2--2--2--0--0--0--0--0--0--0--0--7--7--7--7--7--7--7--7--2--2--2--2--2-|
fucking break
e|---------|
B|---------|
G|---------|
D|-4--4--4-|
A|-2--2--2-|
E|-2--2--2-|

Outro (Distortion) 3x
Farting with a walkman on
e|------------------------------------------------|
B|------------------------------------------------|
G|-4--4--4--4--4--4--4--4--4--4--4--4--4--4-------|
D|-4--4--4--4--4--4--4--4--4--4--4--4--4--4--4--4-|
A|-2--2--2--2--2--2--2--2--2--2--2--2--2--2--4--4-|
E|-------------------------------------------2--2-|

Outro (Distortion) 1x
Farting with a walkman on
e|------------------------------------------|
B|------------------------------------------|
G|-4--4--4--4--4--4--4--4--4--4--4--4--4--4-|
D|-4--4--4--4--4--4--4--4--4--4--4--4--4--4-|
A|-2--2--2--2--2--2--2--2--2--2--2--2--2--2-|
E|------------------------------------------|
===============================================================================
Song:  Ralph Wiggum
Band:  The Bloodhound Gang
Album: Hefty Fine - 2005

Tabbed by:  fasterdisco@gmail.com

Standard tuning.


Verse:
            8x         8x          1x
E------|----------|-----------|-----------|
B------|----------|-----------|-----------|
G------|-2-2-2-2--|-----------|-----------|
D---2--|-2-2-2-2--|--4-4-4-4--|-2-2-2-2---|
A---2--|-0-0-0-0--|--4-4-4-4--|-2-2-2-2---|
E---0--|----------|--2-2-2-2--|-0-0-0-0---|


Solo:

Variation #1

E---------------------------------------------------------|
B--------------------------------------------2-2-3-3-2-2--|
G---------------------------------------------------------|
D--2-2-4-2----------------------6-6-4-4-2-2---------------|
A-----------4-5-4--2-4-2-4-4-0-0--------------------------|
E---------------------------------------------------------|

Variation #2 (same notes, higher on the fretboard, sounds more like the way Lupus plays
on the record.)

E--------------------------------------------------------------------|
B--------------------------------------------------------------------|
G--------------------------------------------------------------------|
D-------------------------------------------------11-11-12-12-11-11--|
A--7-7-9-7-------------------------11-11-9-9-7-7---------------------|
E----------9-10-9--7-9-7-9-9-5-5-------------------------------------|


Chorus:

Raplhie ....

4x

E------------|
B------------|
G--7-7-7-7---|
D--7-7-7-7---|
A--5-5-5-5---|
E------------|


Get off ...

4x

E-----------------|
B-----------------|
G-----------------|
D--4-4-4-4--------|
A--4-4-4-4--------|
E--2-2-2-2--------|


The stage ...

4x

E------------|
B------------|
G------------|
D--2-2-2-2---|
A--2-2-2-2---|
E--0-0-0-0---|


Sweetheart ...

4x - then back to beginning and repeat (Oh say can you ROCK!  I'm a pop sensation/yvan eht nioj ...)

E------------|
B------------|
G--4-4-4-4---|
D--4-4-4-4---|
A--2-2-2-2---|
E------------|
=============================================================================
Artist: The Bloodhound Gang
Song: Something Diabolical
Tabbed by: Dolphin

The song is very simple, so I doubt you will have any problems with it.
Ok, here it goes. The tuning for guitar should be standart eBGDAE.
There are only two "cuts" played by guitar - the intro-like one, and
the chorus one. Both are really simple, and, as I've mentioned above,
it shouldn't be a problem to learn to play the song in about 10 minutes.
Wish you luck!

Intro (first time played at 0:50)
|-----|--------------|--------------|-------------|----------|--------|
|-----|--------------|--------------|-------------|----------|--------|
|-----|--------------|--------------|-------------|----------|--------|
|-2-2-|-2-4--5--2--2-|-2-4--0--2--2-|-2-4--5--7-7-|-9--10-10-|-5--3-2-|
|-----|--------------|--------------|-------------|----------|--------|
|-----|--------------|--------------|-------------|----------|--------|

Chorus (first time played at 2:00)
|-----------|-----------|-----------|
|-----------|-----------|-----------|
|-----------|-----------|-----------|
|-----0---1-|-----------|-----0---1-|
|-----------|-2-3-5-----|-----------|
|-2-3---2---|-------3-5-|-2-3---2---|

For any comments mailto: dolphins_mail@mail.ru
=============================================================================
----------------------------------------------------------------------------
			     Pennsylvania - Bloodhound Gang
----------------------------------------------------------------------------
Tabbed by: Stumaster18
Email:?
Tuning: Standard Tuning

well. a new song from the new bloodhound cd. it kicks ass!! hope you like it!! as far as
concerned, it's perfect!! PLEASE RATE!!

1st Verse: (starts out right away)
e|------------------------------------|
B|----------all-palm-muted!-----------|
G|------------------------------------|
D|-5-(x16)----------------------------| x1
A|-3--------7-(x16)--2-(x16)--5-(x16)-|
E|----------5--------0--------3-------|

**the second time the above part is played, the last power chord (E3, A5) is not palm
please make a note of that!!**


Part After Verse:
Guitar 1:
e|-----------------------------------|
B|-----------------------------------|
G|-----------------------------------|
D|-5-(x8)----------------------------| x2
A|-3--------7-(x8)---2-(x8)---5-(x8)-|
E|----------5--------0--------3------|

Guitar 2:
e|-----------------------------------------|
B|-----------------------------------------|
G|-----------------------------------------|x1
D|-----------------------------------------|
A|-7-7-7-7-5-------------------5---------5-|
E|-----------7-7-7-7-5-7-7-7-7---7-7-7-7---|

e|--------------------------------------------|
B|--------------------------------------------|
G|--------------------------------------------|x1
D|--------------------------------------------|
A|-7-7-7-7-5-------------------5---------5-7~-|
E|-----------7-7-7-7-5-7-7-7-7---7-7-7-7------|


2nd Verse:
e|------------------------------------|
B|----------all-palm-muted!-----------|
G|------------------------------------|
D|-5-(x16)----------------------------| x1
A|-3--------7-(x16)--2-(x16)--5-(x16)-|
E|----------5--------0--------3-------|

**the second time the above part is played, the last power chord (E3, A5) is not palm
please make a note of that!!**

Chorus:
e|------------------------------------|
B|------------------------------------|
G|-5----------------------------------|
D|-5-(x16)--7--------2--------5-------| x2
A|-3--------7-(x16)--2-(x16)--5-(x16)-|
E|----------5--------0--------3-------|

Part After Chorus:
Guitar 1:
e|-----------------------------------|
B|-----------------------------------|
G|-----------------------------------|
D|-5-(x8)----------------------------| x2
A|-3--------7-(x8)---2-(x8)---5-(x8)-|
E|----------5--------0--------3------|

Guitar 2:
e|-----------------------------------------|
B|-----------------------------------------|
G|-----------------------------------------|x1
D|-----------------------------------------|
A|-7-7-7-7-5-------------------5---------5-|
E|-----------7-7-7-7-5-7-7-7-7---7-7-7-7---|

e|--------------------------------------------|
B|--------------------------------------------|
G|--------------------------------------------|x1
D|--------------------------------------------|
A|-7-7-7-7-5-------------------5---------5-7~-|
E|-----------7-7-7-7-5-7-7-7-7---7-7-7-7------|


**1st Verse played again, then goes straight into Chorus**


Part After Chorus:
Guitar 1:
e|-----------------------------------|
B|-----------------------------------|
G|-----------------------------------|
D|-5-(x8)----------------------------| x4
A|-3--------7-(x8)---2-(x8)---5-(x8)-|
E|----------5--------0--------3------|

Guitar 2:                                           \
e|-----------------------------------------|        |
B|-----------------------------------------|        |
G|-----------------------------------------|x1      |
D|-----------------------------------------|        |
A|-7-7-7-7-5-------------------5---------5-|        |
E|-----------7-7-7-7-5-7-7-7-7---7-7-7-7---|        |
                                                    |-- x2
e|--------------------------------------------|     |
B|--------------------------------------------|     |
G|--------------------------------------------|x1   |
D|--------------------------------------------|     |
A|-7-7-7-7-5-------------------5---------5-7~-|     |
E|-----------7-7-7-7-5-7-7-7-7---7-7-7-7------|     |
                                                   /
End with: (both guitars)
e|----|
B|----|
G|----|
D|-7~-|
A|-7~-|
E|-5~-|

yeyeye!!! awesome song!!! hope you enjoy it!! I sure did! Ciao people :)
=============================================================================
  	 Uhn Tiss Uhn Tiss Uhn Tiss Tab by Bloodhound Gang, www.Ultimate-Guitar.Com

-------------------------------------------------------------------------------
			     Uhn Tiss Uhn Tiss Uhn Tiss - Bloodhound Gang
-------------------------------------------------------------------------------
Tabbed by: ShanZE
Email: shanze.bfs@luukku.com

Tuning: normal

This is the only guitar part in the song, play with a clean tone.
e|---------------------------------------------------------------------------|
B|---------------------------------------------------------------------------|
G|---5----5--5--3------------------------------------------------------------|
D|------------------5---5--5--3----------------------------------------------|
A|--------------------------------3---3-3--3--6--3-----3-3--3--6--3----------|
E|---------------------------------------------------------------------------|

===============================================================================
  	 No Hard Feelings Tab by Bloodhound Gang, www.Ultimate-Guitar.Com

This is my first tab, it sounds pretty accurate to me. Any suggestions, comments,
or corrections, email at sid3_eff3ct@yahoo.com

Intro Lead Riff:

comes in at around 0:36

w/ phaser, wah, and distortion

e|-------------------------------------------------------------------|
B|-------------------------------------------------------------------|
G|-------------------------------------------------------------------|
D|-4-4-4-4--4-5-4--------------5-4-------------5-4-------------5-7---| x4
A|-----------------7-7-7-7--7-------5-5-5-5--5------4-4-4-4--4-------|
E|-------------------------------------------------------------------|

during the second time comes the rhythm guitar which goes something like this:

w/ heavy distortion

e|-------------------------------------------------------------------|
B|-------------------------------------------------------------------|
G|-------------------------------------------------------------------|
D|-4-(x8)------------------------------------------------------------|
A|-2-----------2-(x8)----------5-(x8)----------7-(x8)----------------|
E|-------------0---------------3---------------5---------------------|


then after that the 1st verse kicks in and you play

clean
e|-------------------------------------------------------------------|
B|-------------------------------------------------------------------|
G|-------------------------------------------------------------------|
D|-4-4--4-4----------------------------------------------------------|
A|-2-2--2-2-----2-2--2-2-----5-5--5-5-----7-7--7-7-------------------|
E|--------------0-0--0-0-----3-3--3-3-----5-5--5-5-------------------|

play that during the verses


then when the ending of the song comes where Jimmy says, "Well maybe it ain't your
you play the rhythm you played for the intro a bunch of times.

During the second time playing it, the lead riff comes in, play that twice then a little
riffs comes on which goes like this:

w/ light distortion
e|--------------------------------------------------------------------|
B|--------------------------------------------------------------------|
G|--------------------------------------------------------------------|
D|-4--4-5-----5-4-----5-4-----5-7-------------------------------------| x4
A|---------7--------5------4------------------------------------------|
E|--------------------------------------------------------------------|


Hefty Fine is a great album, go check it out.
=============================================================================
=============================================================================
Tap to rate this tab
 
# A B C D E F G H I J K L M N O P Q R S T U V W X Y Z