Song name
# A B C D E F G H I J K L M N O P Q R S T U V W X Y Z

Bloodhound Gang - Foxtrot Uniform Charlie Kilo tab

SONG: FOXTROT UNIFORM CHARLIE KILO
ARTIST: BLOODHOUND GANG
ALBUM: HEFTY FINE

LEGEND: /  slide up
        \  slide down
        h  hammer-on
        p  pull-off
        v  vibrato
        b  bend
        x  palm-muted


INTRO (clean)

Eb|----------------------------------------------------------------|
Bb|----------------------------------------------------------------|
Gb|----------------------------------------------------------------|
Db|--9---------9--9-7-------9--9----------9--9-7---------10--10-9--|
Ab|-----10-10----------7-7-------10--------------------------------|
Eb|----------------------------------7-7----------10-10------------|

Eb|-------------------------------------------------------------|
Bb|-------------------------------------------------------------|
Gb|-------------------------------------------------------------|
Db|---------9--9-7-------9--9----------9--9-7---------10--10-9--|
Ab|--10-10----------7-7-------10--------------------------------|
Eb|-------------------------------7-7----------10-10------------|


VERSE (clean)

Eb|---------------------------------------------------------------------|
Bb|---------------------------------------------------------------------|
Gb|---------------------------------------------------------------------|
Db|--12-12--12-12-12--x-9-9--9-9-9--x-----------------------------------| x3
Ab|--10-10--10-10-10--x-7-7--7-7-7--x-9-9--9-9-9--x-12-12--12-12-12--x--|
Eb|-----------------------------------7-7--7-7-7--x-10-10--10-10-10--x--|

Eb|------------------------------------------------------------------|
Bb|------------------------------------------------------------------|
Gb|------------------------------------------------------------------|
Db|--12-12--12-12-12--x-9-9--9-9-9--x--------------------------------|
Ab|--10-10--10-10-10--x-7-7--7-7-7--x-9-9--9-9-9--x-12--x---x---x----|
Eb|-----------------------------------7-7--7-7-7--x-10--x-x-x-x-x-x--|


BRIDGE (distortion)

Eb|---------------------------------------------------|
Bb|---------------------------------------------------|
Gb|---------------------------------------------------|
Db|--10-10-10-10-10-10-10-10-10-10-10-10-10-10-10-10--|
Ab|--10-10-10-10-10-10-10-10-10-10-10-10-10-10-10-10--|
Eb|--8--8--8--8--8--8--8--8--8--8--8--8--8--8--8--8---|

Eb|---------------------------------------------------|
Bb|---------------------------------------------------|
Gb|--------------------------7--7--7--7--7--7--7--7---|
Db|--5--5--5--5--5--5--5--5--7--7--7--7--7--7--7--7---|
Ab|--5--5--5--5--5--5--5--5--5--5--5--5--5--5--5--5---|
Eb|--3--3--3--3--3--3--3--3---------------------------|

Eb|---------------------------------------------------|
Bb|---------------------------------------------------|
Gb|---------------------------------------------------|
Db|--10-10-10-10-10-10-10-10-10-10-10-10-10-10-10-10--|
Ab|--10-10-10-10-10-10-10-10-10-10-10-10-10-10-10-10--|
Eb|--8--8--8--8--8--8--8--8--8--8--8--8--8--8--8--8---|

Eb|---------------------------------------------------|
Bb|---------------------------------------------------|
Gb|--------------------------7--7--7--7--7--7--7--7---|
Db|--2--2--2--2--2--2--2--2--7--7--7--7--7--7--7--7---|
Ab|--2--2--2--2--2--2--2--2--5--5--5--5--5--5--5--5---|
Eb|--0--0--0--0--0--0--0--0---------------------------|


CHORUS (distortion)

Eb|--------------------------------------------------|
Bb|--------------------------------------------------|
Gb|--------------------------------------------------|
Db|--5--5--5--5--5--5--5--5--2--2--2--2--2--2--2--2--|
Ab|--5--5--5--5--5--5--5--5--2--2--2--2--2--2--2--2--|
Eb|--3--3--3--3--3--3--3--3--0--0--0--0--0--0--0--0--|

Eb|--------------------------------------------------|
Bb|--------------------------------------------------|
Gb|--5--5--5--5--5--5--5--5--7--7--7--7--7--7--7--7--|
Db|--5--5--5--5--5--5--5--5--7--7--7--7--7--7--7--7--|
Ab|--3--3--3--3--3--3--3--3--5--5--5--5--5--5--5--5--|
Eb|--------------------------------------------------|

Eb|--------------------------------------------------|
Bb|--------------------------------------------------|
Gb|--------------------------------------------------|
Db|--5--5--5--5--5--5--5--5--2--2--2--2--2--2--2--2--|
Ab|--5--5--5--5--5--5--5--5--2--2--2--2--2--2--2--2--|
Eb|--3--3--3--3--3--3--3--3--0--0--0--0--0--0--0--0--|

Eb|--------------------------------------------------|
Bb|--------------------------------------------------|
Gb|--5--5--5--5--5--5--5--5--7--7--7--7--7--7--7--7--|
Db|--5--5--5--5--5--5--5--5--7--7--7--7--7--7--7--7--|
Ab|--3--3--3--3--3--3--3--3--5--5--5--5--5--5--5--5--|
Eb|--------------------------------------------------|


FILL (clean)

Eb|-------------------------------------------------------------|
Bb|-------------------------------------------------------------|
Gb|-------------------------------------------------------------|
Db|---------9--9-7-------9--9----------9--9-7---------10--10-9--|
Ab|--10-10----------7-7-------10--------------------------------|
Eb|-------------------------------7-7----------10-10------------|

Eb|-------------------------------------------------------------|
Bb|-------------------------------------------------------------|
Gb|-------------------------------------------------------------|
Db|---------9--9-7-------9--9----------9--9-7---------10--10-9--|
Ab|--10-10----------7-7-------10--------------------------------|
Eb|-------------------------------7-7----------10-10------------|


VERSE (clean)

Eb|---------------------------------------------------------------------|
Bb|---------------------------------------------------------------------|
Gb|---------------------------------------------------------------------|
Db|--12-12--12-12-12--x-9-9--9-9-9--x-----------------------------------| x3
Ab|--10-10--10-10-10--x-7-7--7-7-7--x-9-9--9-9-9--x-12-12--12-12-12--x--|
Eb|-----------------------------------7-7--7-7-7--x-10-10--10-10-10--x--|

Eb|------------------------------------------------------------------|
Bb|------------------------------------------------------------------|
Gb|------------------------------------------------------------------|
Db|--12-12--12-12-12--x-9-9--9-9-9--x--------------------------------|
Ab|--10-10--10-10-10--x-7-7--7-7-7--x-9-9--9-9-9--x-12--x---x---x----|
Eb|-----------------------------------7-7--7-7-7--x-10--x-x-x-x-x-x--|


BRIDGE (distortion)

Eb|---------------------------------------------------|
Bb|---------------------------------------------------|
Gb|---------------------------------------------------|
Db|--10-10-10-10-10-10-10-10-10-10-10-10-10-10-10-10--|
Ab|--10-10-10-10-10-10-10-10-10-10-10-10-10-10-10-10--|
Eb|--8--8--8--8--8--8--8--8--8--8--8--8--8--8--8--8---|

Eb|---------------------------------------------------|
Bb|---------------------------------------------------|
Gb|--------------------------7--7--7--7--7--7--7--7---|
Db|--5--5--5--5--5--5--5--5--7--7--7--7--7--7--7--7---|
Ab|--5--5--5--5--5--5--5--5--5--5--5--5--5--5--5--5---|
Eb|--3--3--3--3--3--3--3--3---------------------------|

Eb|---------------------------------------------------|
Bb|---------------------------------------------------|
Gb|---------------------------------------------------|
Db|--10-10-10-10-10-10-10-10-10-10-10-10-10-10-10-10--|
Ab|--10-10-10-10-10-10-10-10-10-10-10-10-10-10-10-10--|
Eb|--8--8--8--8--8--8--8--8--8--8--8--8--8--8--8--8---|

Eb|---------------------------------------------------|
Bb|---------------------------------------------------|
Gb|--------------------------7--7--7--7--7--7--7--7---|
Db|--2--2--2--2--2--2--2--2--7--7--7--7--7--7--7--7---|
Ab|--2--2--2--2--2--2--2--2--5--5--5--5--5--5--5--5---|
Eb|--0--0--0--0--0--0--0--0---------------------------|


CHORUS (distortion)

Eb|--------------------------------------------------|
Bb|--------------------------------------------------|
Gb|--------------------------------------------------|
Db|--5--5--5--5--5--5--5--5--2--2--2--2--2--2--2--2--|
Ab|--5--5--5--5--5--5--5--5--2--2--2--2--2--2--2--2--|
Eb|--3--3--3--3--3--3--3--3--0--0--0--0--0--0--0--0--|

Eb|--------------------------------------------------|
Bb|--------------------------------------------------|
Gb|--5--5--5--5--5--5--5--5--7--7--7--7--7--7--7--7--|
Db|--5--5--5--5--5--5--5--5--7--7--7--7--7--7--7--7--|
Ab|--3--3--3--3--3--3--3--3--5--5--5--5--5--5--5--5--|
Eb|--------------------------------------------------|

Eb|--------------------------------------------------|
Bb|--------------------------------------------------|
Gb|--------------------------------------------------|
Db|--5--5--5--5--5--5--5--5--2--2--2--2--2--2--2--2--|
Ab|--5--5--5--5--5--5--5--5--2--2--2--2--2--2--2--2--|
Eb|--3--3--3--3--3--3--3--3--0--0--0--0--0--0--0--0--|

Eb|--------------------------------------------------|
Bb|--------------------------------------------------|
Gb|--5--5--5--5--5--5--5--5--7--7--7--7--7--7--7--7--|
Db|--5--5--5--5--5--5--5--5--7--7--7--7--7--7--7--7--|
Ab|--3--3--3--3--3--3--3--3--5--5--5--5--5--5--5--5--|
Eb|--------------------------------------------------|


BREAKDOWN (distortion)

GUITAR I
Eb|--------------------------------------------------|
Bb|--------------------------------------------------|
Gb|--------------------------------------------------|
Db|--5--5--5--5--5--5--5--5--2--2--2--2--2--2--2--2--|
Ab|--5--5--5--5--5--5--5--5--2--2--2--2--2--2--2--2--|
Eb|--3--3--3--3--3--3--3--3--0--0--0--0--0--0--0--0--|

ADDITIONAL GUITAR
Eb|--------------------------------------------------|
Bb|--------------------------------------------------|
Gb|--------------------------------------------------|
Db|-----------9----9--7---------------9----9---------|
Ab|-------------------------------------------10-----|
Eb|--------------------------------------------------|

GUITAR I
Eb|--------------------------------------------------|
Bb|--------------------------------------------------|
Gb|--5--5--5--5--5--5--5--5--7--7--7--7--7--7--7--7--|
Db|--5--5--5--5--5--5--5--5--7--7--7--7--7--7--7--7--|
Ab|--3--3--3--3--3--3--3--3--5--5--5--5--5--5--5--5--|
Eb|--------------------------------------------------|

ADDITIONAL GUITAR
Eb|--------------------------------------------------|
Bb|--------------------------------------------------|
Gb|--------------------------------------------------|
Db|-----------9----9--7---------------10---10--9-----|
Ab|--------------------------------------------------|
Eb|--------------------------------------------------|


REPEAT 3 MORE TIMES, AND THEN END ON THIS:

Eb|-------|
Bb|-------|
Gb|-------|
Db|--5----|
Ab|--5----|
Eb|--3----|


If you've got any questions or anything involving this or any of my other
tabs then feel free to contact me at: killboytv@yahoo.com.au
Tap to rate this tab
 
# A B C D E F G H I J K L M N O P Q R S T U V W X Y Z