Song name
# A B C D E F G H I J K L M N O P Q R S T U V W X Y Z

Bloodhound Gang - Vagina Song tab

| /  slide up
| \  slide down
| h  hammer-on
| p  pull-off
| ~  vibrato
| +  harmonic
| x  Mute note


vagina tabs

ma first tab go easy on me


intro picky bit
E|--------------|--------------|   
B|-7--7--5-----5|-7--7----7-8--|
G|--7--7---6----|--7--7-9-----9|
D|-----------7--|--------------|
A|--------------|--------------|
E|--------------|--------------|


E|--------------|--------------|   
B|-7--7--5-----5|-7--7----7-8--|
G|--7--7---6----|--7--7-9-----9|
D|-----------7--|--------------|
A|--------------|--------------|
E|--------------|--------------|


E|--------------|-----------------|
B|-7--7--5-----5|-7-7-7--10-10-10-|
G|--7--7---6----|-----------------|
D|-----------7--|-----------------|
A|--------------|-----------------|
E|--------------|-----------------|

kwl chord bit :D
E|---------|---------|---------|---------|  
B|---------|---------|---------|---------|
G|---------|---------|---------|---------|
D|-7-7-7---|-2-2-2-6-|-4-4-4---|-2-2-2-6-|
A|-5-5-5-4-|-0-0-0-4-|-2-2-2-4-|-0-0-0-4-|
E|-------2-|---------|-------2-|---------|
Tap to rate this tab
# A B C D E F G H I J K L M N O P Q R S T U V W X Y Z