Song name
# A B C D E F G H I J K L M N O P Q R S T U V W X Y Z

Bloodhound Gang - Uhn Tiss Uhn Tiss Uhn Tiss tab

-------------------------------------------------------------------------------
			     SONG NAME - Band Name
-------------------------------------------------------------------------------
Tabbed by:growingearth
Email:Know.you@hotmail.co.uk

Tuning:eadgbe /standard


intro bit
e|---------------------------------------------------------------------------|  x2
B|---------------------------------------------------------------------------|
G|-5-5-5-3-------------------------------------------------------------------|
D|---------5-5-5-3-----------------------------------------------------------|
A|------------------3-3-3-3--6\3---3-3-3-3--6\3------------------------------|
E|---------------------------------------------------------------------------|


"Dog will hunt i'm the front...." verse bit
e|---------------------------------------------------------------------------|  x4
B|---------------------------------------------------------------------------|
G|---------------------------------------------------------------------------|
D|-5-5-5-5---8-8-8-8---------------------------------------------------------|
A|-3-3-3-3---6-6-6-6--6-6-6-6--3-3-3-3---------------------------------------|
E|--------------------4-4-4-4--1-1-1-1---------------------------------------|


"cause iv got sumthin..." chorus bit
e|---------------------------------------------------------------------------|  x4
B|---------------------------------------------------------------------------|
G|---------------------------------------------------------------------------|
D|-5-5-5-5---8-8-8-8---------------------------------------------------------|
A|-3-3-3-3---6-6-6-6---3-3-3-3--6\3---3-3-3-3--6\3---------------------------|
E|---------------------------------------------------------------------------|



e|---------------------------------------------------------------------------|  x2
B|---------------------------------------------------------------------------|
G|-5-5-5-3-------------------------------------------------------------------|
D|---------5-5-5-3-----------------------------------------------------------|
A|------------------3-3-3-3--6\3---3-3-3-3--6\3------------------------------|
E|---------------------------------------------------------------------------|


"Edible strange how do I get in your pants when you're tick tockin' them"
e|---------------------------------------------------------------------------|  x4
B|---------------------------------------------------------------------------|
G|---------------------------------------------------------------------------|
D|-5-5-5-5---8-8-8-8---------------------------------------------------------|
A|-3-3-3-3---6-6-6-6--6-6-6-6--3-3-3-3---------------------------------------|
E|--------------------4-4-4-4--1-1-1-1---------------------------------------|




| /  slide up
| \  slide down
| h  hammer-on
| p  pull-off
| ~  vibrato
| +  harmonic
| x  Mute note
===============================================================================
Tap to rate this tab
# A B C D E F G H I J K L M N O P Q R S T U V W X Y Z