Song name
# A B C D E F G H I J K L M N O P Q R S T U V W X Y Z

Bloodhound Gang - Three Point One Four tab

----------------------------------------------------------------------------
	         Three Point One Four - Bloodhound Gang
----------------------------------------------------------------------------

I had to tab this song because most of the others sucked and the ones
that were good were not complete. So here you go I tabed out the whole 
song beginning to end. Im pretty sure its all correct.


 e|------------------------------------|
 B|-7---7---5-----5----7---7---5-7-8-5-|
 G|---7---7---6----------7---7---------| x3
 D|-------------7----------------------|
 A|------------------------------------|
 E|------------------------------------|

 e|----------------------------------------|
 B|-7---7---5-----5----7-7-7-7-10-10-10-10-|
 G|---7---7---6----------------------------| x1
 D|-------------7--------------------------|
 A|----------------------------------------|
 E|----------------------------------------|

 e|---------------------------------|
 B|---------------------------------|
 G|-7-7-7---2-2-2-6-4-4-4---0-0-0-6-| x2
 D|-7-7-7-4-2-2-2-6-4-4-4-4-0-0-0-6-|
 A|-5-5-5-4-0-0-0-4-2-2-2-4-2-2-2-4-|
 E|-------2---------------2---------|

 e|---------------------------------|
 B|---------------------------------|
 G|---------------------------------|
 D|---7---7---7-------7---7---7-----|
 A|-5---5---5---3-4-5---5---5---5-4-|
 E|---------------------------------|

 e|---------------------------------|
 B|---------------------------------|
 G|---------------------------------|
 D|---------------------------------|
 A|---7---7---7-------7---7---7-----|
 E|-5---5---5---3-4-5---5---5---3-4-|

 e|---------------------------------|
 B|---------------------------------|
 G|---------------------------------|
 D|---------------------------------|
 A|---9---9---9-------9---9---9-----|
 E|-7---7---7---5-6-7---7---7---7-6-|

 e|---------------------------------|
 B|---------------------------------|
 G|---------------------------------|
 D|---------------------------------|
 A|---7---7---7-------7---7---7-----|
 E|-5---5---5---3-4-5---5---5---3-4-|

 e|---------------------------------|
 B|---------------------------------|
 G|-------------------------7-7-7-7-|
 D|---------4-4-4-4-7-7-7-7---------|
 A|-5-5-5-5-------------------------|
 E|---------------------------------|

 e|---------------------------------|
 B|---------------------------------|
 G|---------------------------------|
 D|-------------------------7-7-7-7-|
 A|---------4-4-4-4-7-7-7-7---------|
 E|-5-5-5-5-------------------------|

 e|---------------------------------|
 B|---------------------------------|
 G|---------------------------------|
 D|-------------------------9-9-9-9-|
 A|---------6-6-6-6-9-9-9-9---------|
 E|-7-7-7-7-------------------------|

 e|---------------------------|
 B|---------------------------|
 G|---------------------------|
 D|---------------------------|
 A|---------4-4-4-4-7-7-7-7-4-|
 E|-5-5-5-5-------------------|

 e|---------------------------------|
 B|---------------------------------|
 G|-7-7-7-7-2-2-2-2-4-4-4-4-2-2-2-2-| x4
 D|-7-7-7-7-2-2-2-2-4-4-4-4-2-2-2-2-|
 A|-5-5-5-5-0-0-0-0-2-2-2-2-0-0-0-0-|
 E|---------------------------------|

 e|---------------------------------|
 B|---------------------------------|
 G|-7-7-7---2-2-2-6-4-4-4---0-0-0-6-| x2
 D|-7-7-7-4-2-2-2-6-4-4-4-4-0-0-0-6-|
 A|-5-5-5-4-0-0-0-4-2-2-2-4-2-2-2-4-|
 E|-------2---------------2---------|

 e|---------------------------------|
 B|---------------------------------|
 G|---------------------------------|
 D|---7---7---7-------7---7---7-----|
 A|-5---5---5---3-4-5---5---5---5-4-|
 E|---------------------------------|

 e|---------------------------------|
 B|---------------------------------|
 G|---------------------------------|
 D|---------------------------------|
 A|---7---7---7-------7---7---7-----|
 E|-5---5---5---3-4-5---5---5---3-4-|

 e|---------------------------------|
 B|---------------------------------|
 G|---------------------------------|
 D|---------------------------------|
 A|---9---9---9-------9---9---9-----|
 E|-7---7---7---5-6-7---7---7---7-6-|

 e|---------------------------------|
 B|---------------------------------|
 G|---------------------------------|
 D|---------------------------------|
 A|---7---7---7-------7---7---7-----|
 E|-5---5---5---3-4-5---5---5---3-4-|

 e|---------------------------------|
 B|---------------------------------|
 G|-------------------------7-7-7-7-|
 D|---------4-4-4-4-7-7-7-7---------|
 A|-5-5-5-5-------------------------|
 E|---------------------------------|

 e|---------------------------------|
 B|---------------------------------|
 G|---------------------------------|
 D|-------------------------7-7-7-7-|
 A|---------4-4-4-4-7-7-7-7---------|
 E|-5-5-5-5-------------------------|

 e|---------------------------------|
 B|---------------------------------|
 G|---------------------------------|
 D|-------------------------9-9-9-9-|
 A|---------6-6-6-6-9-9-9-9---------|
 E|-7-7-7-7-------------------------|

 e|---------------------------|
 B|---------------------------|
 G|---------------------------|
 D|---------------------------|
 A|---------4-4-4-4-7-7-7-7-4-|
 E|-5-5-5-5-------------------|

 e|---------------------------------|
 B|---------------------------------|
 G|-7-7-7-7-2-2-2-2-4-4-4-4-2-2-2-2-| x4
 D|-7-7-7-7-2-2-2-2-4-4-4-4-2-2-2-2-|
 A|-5-5-5-5-0-0-0-0-2-2-2-2-0-0-0-0-|
 E|---------------------------------|

after the fourth time another guitar plays the intro part over
the other guitar

guitar 1
 e|---------------------------------|          -----|
 B|---------------------------------|               |
 G|-7-7-7-7-2-2-2-2-4-4-4-4-2-2-2-2-| x4            |
 D|-7-7-7-7-2-2-2-2-4-4-4-4-2-2-2-2-|               |
 A|-5-5-5-5-0-0-0-0-2-2-2-2-0-0-0-0-|               |
 E|---------------------------------|               |----these are played
                                                    |    together
guitar 2                                            |
 e|------------------------------------|            |
 B|-7---7---5-----5----7---7---5-7-8-5-|            |
 G|---7---7---6----------7---7---------| x3         |
 D|-------------7----------------------|            |
 A|------------------------------------|            |
 E|------------------------------------|      ------|
                     
 e|----------------------------------------|
 B|-7---7---5-----5----7-7-7-7-10-10-10-10-|
 G|---7---7---6----------------------------|
 D|-------------7--------------------------|
 A|----------------------------------------|
 E|----------------------------------------|

guitar 1
 e|---------------------------------|  ------|
 B|---------------------------------|        |
 G|-7-7-7---2-2-2-6-4-4-4---0-0-0-6-|        |
 D|-7-7-7-4-2-2-2-6-4-4-4-4-0-0-0-6-|        |
 A|-5-5-5-4-0-0-0-4-2-2-2-4-2-2-2-4-|        |
 E|-------2---------------2---------|        |
                                             |---played together till
guitar 2                                     |     fade out
 e|---------------------|                    |
 B|-7-7-7-7-10-10-10-10-|                    |
 G|---------------------|                    |
 D|---------------------|                    |
 A|---------------------|                    |
 E|---------------------|         -----------|

============================================================================
Tap to rate this tab
# A B C D E F G H I J K L M N O P Q R S T U V W X Y Z