Song name
# A B C D E F G H I J K L M N O P Q R S T U V W X Y Z

Bloodhound Gang - Three Point One Four tab

t. See http://www.olga.net/faq/ for more information.                     #
#-----------------------------------------------------------------------------#

Date: Fri, 25 Feb 2000 17:05:27 -0500
From: Coulman@gmx.de
Subject: b/bloodhound_gang/three_point_one_four.tab

Tabbed by Coulman@gmx.de

Artist:   "Bloodhound Gang"
Title:    "Three Point One Four"

From The Album:  "Hooray For Boobies"


INTRO, RIFF:

e|-2------2--------0-------------0-----2--------2--------0---2---3---0-|
h|----3-------3---------2------------------3--------3------------------|
G|---------------------------2-----------------------------------------|
D|---------------------------------------------------------------------|
A|---------------------------------------------------------------------|
E|---------------------------------------------------------------------|

play it 3 times and then you play:



e|-2------2--------0-------------0-----2---2---2---2----5---5---5---5--|
h|----3-------3---------2----------------------------------------------|
G|---------------------------2-----------------------------------------|
D|---------------------------------------------------------------------|
A|---------------------------------------------------------------------|
E|---------------------------------------------------------------------|


VERSE:

Only The Bass plays!


CHORUS:

     D         |  A         |  H         |  G

e|---5--5--5--x---5--5--5--x---2--2--2--x---3--3--3-----|
h|---7--7--7--x---5--5--5--x---4--4--4--x---3--3--3-----|
G|---7--7--7--x---6--6--6--x---4--4--4--x---4--4--4-----|
D|---7--7--7--x---7--7--7--x---4--4--4--x---5--5--5-----|
A|---5--5--5--x---7--7--7--x---2--2--2--x---5--5--5-----|
E|---5--5--5--x---5--5--5--x---2--2--2--x---3--3--3-----|


And That's It!  Enjoy It!


If you have any Questions, Corrections or others:   Coulman@gmx.de   or
Jazz-man@web.de  !
Tap to rate this tab
# A B C D E F G H I J K L M N O P Q R S T U V W X Y Z