Song name
# A B C D E F G H I J K L M N O P Q R S T U V W X Y Z

Bloodhound Gang - Kids In America tab

Help us improve GuitareTab! Take a short survey!
Ok this is a Kids In America by the Bloodhound Gang. Now there are lots of ways 
to play this song, but this is how they play it.



Intro (Palm Mute)


E--------------|
B--------------|
G--4--2--------|
D--4--2--5--2--|
A--2--0--5--2--|
E--------3--0--|

Verse (Palm Mute)

E-------------------|
B-------------------|
G-------------------|
D--9--7--5--2--4----|
A--9--7--5--2--4----|
E--7--5--3--0--2----|

Chorus

E---------------------------------------------|
B---------------------------------------------|
G---------------------------------------------|
D--5--7--9--11----5--7--9--11----5--7--12--9--|
A--5--7--9--11----5--7--9--11----5--7--12--9--|
E--3--5--7--9-----3--5--7--9-----3--5--10--7--|


Outro (Palm Mute)

E--------------------|
B--------------------|
G--------------------|
D--9--7--9--7--5--9--|
A--9--7--9--7--5--9--|
E--7--5--7--5--3--7--|     

E-----------|
B-----------|
G-----------|
D--4--5--2--|
A--4--5--2--|
E--2--3--0--|
Related for Kids In America tab