Song name
# A B C D E F G H I J K L M N O P Q R S T U V W X Y Z

Bloodhound Gang - Shut Up tab

This Just a quick tab i made. deal with it.

Intro/Verse:

E]------------------------------------------|
B]---11-11-x--11-11-x-11-11-11-x--11-11-x---|
G]---11-11-x--11-11-x-11-11-11-x--11-11-x---|
D]---11-11-x--11-11-x-11-11-11-x--11-11-x---|
A]---9--9--x--9--9--x-9--9--9--x--9--9--x---|
E]------------------------------------------|

Repeat until..(if you want)

litlle riff:

E-----------------------------------|
B-----------------------------------|
G----11-8---------------------------|
D----------11-8-8-(8)-11p8-8--------|
A--9--------------------------------|
E-----------------------------------|

Then chorus:

E]-------12-12-------10-10----|
B]----------------------------|
G]----------------------------|
D]--8h9---------8h9-----------|
A]----------------------------|
E]----------------------------|


there, if your a good enough guitarist you'll figure out where it all goes. peace.

~~Smoke Weed Every Day~~
Tap to rate this tab
# A B C D E F G H I J K L M N O P Q R S T U V W X Y Z