Song name
# A B C D E F G H I J K L M N O P Q R S T U V W X Y Z

Bloodhound Gang - Dragostea Din Tei tab

Tabbed by:Taxidriver
Email:Hampushjelte@hotmail.com

My second tab^^ Be sure to check out my first tab, "Lemonade" by Rivers Cuomo!

Tuning:Standard

Intro

e|---------------------------------------------------------------------------|
B|---------------------------------------------------------------------------|
G|-*PM*----------------------------------------------------------------------|
D|-2-2-2-2-2-2-2-2-2-2-2-2-2-2-2-2-------------------------------------------|
A|-2-2-2-2-2-2-2-2-2-2-2-2-2-2-2-2-------------------------------------------|
E|-0-0-0-0-0-0-0-0-0-0-0-0-0-0-0-0-------------------------------------------|

Verse

e|---------------------------------------------------------------------------|
B|-*PM*----------------------------------------------------------------------|
G|-5-5-5-5-5-5-5-5-----------------7-7-7-7-7-7-7-7-9-9-9-9-9-9-9-9-----------|
D|-5-5-5-5-5-5-5-5-5-5-5-5-5-5-5-5-7-7-7-7-7-7-7-7-9-9-9-9-9-9-9-9-----------|
A|-3-3-3-3-3-3-3-3-5-5-5-5-5-5-5-5-5-5-5-5-5-5-5-5-7-7-7-7-7-7-7-7-----------|
E|-----------------3-3-3-3-3-3-3-3-------------------------------------------|

Pre-chorus 
Listen to the video for strumming pattern on the e-chord here:
http://www.youtube.com/watch?v=ZSRF5oERKzU

Chorus
Exactly like the verse, but no pm.
Tap to rate this tab
# A B C D E F G H I J K L M N O P Q R S T U V W X Y Z