Song name
# A B C D E F G H I J K L M N O P Q R S T U V W X Y Z

Bloodhound Gang - Along Comes Mary tab

#----------------------------------PLEASE NOTE--------------------------------#
#This file is the author's own work and represents their interpretation of the#
#song. You may only use this file for private study, scholarship, or research.#
#-----------------------------------------------------------------------------#
#-- File created with Instab - http://www.pconline.com/~smcarey/instab.html --#
#-----------------------------------------------------------------------------#

Author/Artist: Bloodhound Gang
Title: Along Comes Mary
Album: Hooray For Bobbies

Transcribed BY Sebastian Goess
Email: the.sebi@gmx.de


Main Riff:
------------------------------------------------------------------------------
------------------------------------------------------------------------------
------------------------------------------------------------------------------
---------55-777777-55-888888-77-555555-77-------------------------------------
-5555555-33-555555-33-666666-55-333333-55-------------------------------------
-333333-----------------------------------------------------------------------
                                                                              
Verse (palm muted)
------------------------------------------------------------------------------
------------------------------------------------------------------------------
------------------------------------------------------------------------------
----------77777777-88888888-55555555------------------------------------------
-55555555-55555555-66666666-33333333------------------------------------------
-33333333---------------------------------------------------------------------
                                                                              
And along comes Mary
------------------------------------------------------------------------------
------------------------------------------------------------------------------
------------------------------------------------------------------------------
------------------------------------------------------------------------------
-55555555-88888888------------------------------------------------------------
-33333333-66666666------------------------------------------------------------
                                                                              
And does she...
--------------------------|---------------------------------------------------
------distored------------|--------palm muted---------------------------------
--------------------------|---------------------------------------------------
------7777-8888-5555------|---------------------------------------------------
-5555-5555-6666-3333------|-----55555555-88888888-----------------------------
-3333---------------------|-----33333333-66666666-----------------------------
                                                                              
Sweet as the punch
------------------------------------------------------------------------------
------------------------------------------------------------------------------
------------------------------------------------------------------------------
-7788-7755-77-----33----------------------------------------------------------
-5566-5533-5555-3311----------------------------------------------------------
-------------33-11------------------------------------------------------------
                                                                              

HOW TO PLAY:

Main Riff (2x)
Verse (2x)
And along comes Mary (2x)
And dows she (2x)
Sweet as the punch (1x)
Main Riff (2x)

Verse (2x)
And along comes Mary (2x)
And dows she (2x)
Sweet as the punch (1x)
Main Riff (2x)

Verse (2x)
And along comes Mary (2x)
And dows she (2x)
Sweet as the punch (1x)
Main Riff (2x)

Sweet as the punch (6x)
(first distored, then palm muted! please listen to the song for timing)
Tap to rate this tab
# A B C D E F G H I J K L M N O P Q R S T U V W X Y Z