Song name
# A B C D E F G H I J K L M N O P Q R S T U V W X Y Z

Bloodhound Gang - Three Point One Four tab

I saw that every other version of this had the wrong chords on it
so i did my own version of the tab.I'm 100% sure it's correct


Intro:

clean                                           x3

e-/--2-----2----0------0----2----2----0--2--3--0--/--2----2----0-----0---2--2--2--2---5--5--5--5-/

B-/-----3-----3----2--2--------3----3-------------/----3----3----2--2----------------------------/

G-/-----------------------------------------------/----------------------------------------------/

D-/-----------------------------------------------/----------------------------------------------/

A-/-----------------------------------------------/----------------------------------------------/

E-/-----------------------------------------------/----------------------------------------------/

Chorus:

with heavy distortion

D,D,D,D; A,A,A; B,B,B,B; G,G,G x2


the chords:

     B     D    G    A
e-/--------2-----------------

B-/--------3-----------------

G-/--4-----2-----------------

D-/--4-----0----6----7-------

A-/--2----------6----7-------

E-/-------------5----5-------
Tap to rate this tab
# A B C D E F G H I J K L M N O P Q R S T U V W X Y Z