Song name
# A B C D E F G H I J K L M N O P Q R S T U V W X Y Z

Bloodhound Gang - The Ballad Of Chasey Lain tab

-------------------------------------------------------------------------------
		 The Ballad Of Chasey Lain - Bloodhound Gang
-------------------------------------------------------------------------------

 e|--------------------------------------------|
 B|--------------------------------------------|
 G|---------------9--9-9-----------------------|
 D|-11--11-11--9--9--9-9--9--7--7-7--9--6--6-6-|
 A|-11--11-11--9--7--7-7--9--7--7-7--9--6--6-6-|
 E|-9---9--9---7----------7--5--5-5--7--4--4-4-|

 e|------------------------------------------|
 B|------------------------------------------|
 G|------------------9--9-9------------------|
 D|-9--11--11-11--9--9--9-9--9--7--7-7--9--6-|
 A|-9--11--11-11--9--7--7-7--9--7--7-7--9--6-|
 E|-7--9---9--9---7----------7--5--5-5--7--4-|

 e|-------------------------------------------------------|
 B|-------------------------------------------------------|
 G|--------------------------99999999---------------------| x2
 D|-11-11-11-11-11-11-11-11--99999999--77777777--66666666-| 
 A|-11-11-11-11-11-11-11-11--77777777--77777777--66666666-|   
 E|-9--9--9--9--9--9--9--9-------------55555555--44444444-|

 e|-------------------------------------------------|
 B|-------------------------------------------------|
 G|----------------------------55555555-6666666p4---|
 D|----------66666666-77777777--------------------6-|
 A|-44444444----------------------------------------|
 E|-------------------------------------------------|

 e|-----------------|
 B|-----------------|
 G|------------9----|
 D|-11--11-11--9--6-|
 A|-11--11-11--7--6-|
 E|-9---9--9------4-|

 e|-------------------------------------------------------|
 B|-------------------------------------------------------|
 G|--------------------------99999999---------------------| x2
 D|-11-11-11-11-11-11-11-11--99999999--77777777--66666666-| 
 A|-11-11-11-11-11-11-11-11--77777777--77777777--66666666-|
 E|-9--9--9--9--9--9--9--9-------------55555555--44444444-|

 e|-------------------------------------------------|
 B|-------------------------------------------------|
 G|----------------------------55555555-6666666p4---|
 D|----------66666666-77777777--------------------6-|
 A|-44444444----------------------------------------|
 E|-------------------------------------------------|

 e|-----------------|
 B|-----------------|
 G|------------9----|
 D|-11--11-11--9--6-|
 A|-11--11-11--7--6-|
 E|-9---9--9------4-|

 e|-------------------------------------------------------|
 B|-------------------------------------------------------|
 G|--------------------------99999999---------------------| x2
 D|-11-11-11-11-11-11-11-11--99999999--77777777--66666666-| 
 A|-11-11-11-11-11-11-11-11--77777777--77777777--66666666-|
 E|-9--9--9--9--9--9--9--9-------------55555555--44444444-|

 e|-------------------------------------------------|
 B|-------------------------------------------------|
 G|----------------------------55555555-6666666p4---|
 D|----------66666666-77777777--------------------6-|
 A|-44444444----------------------------------------|
 E|-------------------------------------------------|

 e|-----------------|
 B|-----------------|
 G|------------9----|
 D|-11--11-11--9--6-|
 A|-11--11-11--7--6-|
 E|-9---9--9------4-|

 e|----------------------------------------------|
 B|----------------------------------------------|
 G|----------------------------------------------| 
 D|-9999999999999999--11-11-11-11-11-11-11-11-11-|
 A|-9999999999999999--11-11-11-11-11-11-11-11-11-|
 E|-7777777777777777--9--9--9--9--9--9--9--9--9--|

 e|------------------------------------|
 B|------------------------------------|
 G|------------------------------------|
 D|-2222222222222222-99999999-44444444-|
 A|-2222222222222222-99999999-44444444-|
 E|-0000000000000000-77777777-22222222-|

 e|----------------------------------------------|
 B|----------------------------------------------|
 G|----------------------------------------------|
 D|-9999999999999999--11-11-11-11-11-11-11-11-11-|
 A|-9999999999999999--11-11-11-11-11-11-11-11-11-|
 E|-7777777777777777--9--9--9--9--9--9--9--9--9--|

 e|------------------------------------|
 B|------------------------------------|
 G|------------------------------------|
 D|-2222222222222222-99999999-4-|
 A|-2222222222222222-99999999-4-|
 E|-0000000000000000-77777777-2-|

 e|--------------------------------------------|
 B|--------------------------------------------|
 G|---------------9--9-9-----------------------|
 D|-11--11-11--9--9--9-9--9--7--7-7--9--6--6-6-|
 A|-11--11-11--9--7--7-7--9--7--7-7--9--6--6-6-|
 E|-9---9--9---7----------7--5--5-5--7--4--4-4-|

 e|------------------------------------------|
 B|------------------------------------------|
 G|------------------9--9-9------------------|
 D|-9--11--11-11--9--9--9-9--9--7--7-7--9--6-|
 A|-9--11--11-11--9--7--7-7--9--7--7-7--9--6-|
 E|-7--9---9--9---7----------7--5--5-5--7--4-|

===============================================================================
Tap to rate this tab
# A B C D E F G H I J K L M N O P Q R S T U V W X Y Z