Song name
# A B C D E F G H I J K L M N O P Q R S T U V W X Y Z

Bloodhound Gang - Foxtrot Uniform Charlie Kilo Acoustic tab

-----------------------------------------------------------------------------
	     Foxtrot Uniform Charlie Kilo(acoustic)- Bloodhound Gang
-----------------------------------------------------------------------------
Tabbed by: MoftyKeks
Email: felixkunz@hotmail.com
I wanted to play this song on acoustic guitar, so i had to change it a lot that there
just chords played (or powerchords) that it sounds betteron acoustic guitar... hope you
it :)

Chords:
   C or  G or Em  Am  F
e|-0-3---3-3--0---0---1-----------------------------------------------------|
B|-1-5---0-3--0---1---1-----------------------------------------------------|
G|-0-5---0-4--0---2---2-----------------------------------------------------|
D|-2-5---0-5--2---2---3-----------------------------------------------------|
A|-3-3---2-5--2---0---3-----------------------------------------------------|
E|-------3-3--0-------1-----------------------------------------------------|
Tuning: normal

Intro:
e|--------------------------------------------------------------------------|
B|--------------------------------------------------------------------------|
G|5-5-x-9-x-9-7---------9-x-9-5---------9-x-9-7---------10-x-10-9-----------|
D|5-5-x-9-x-9-7---7-7-x-9-x-9-5---2-2-x-9-x-9-7---5-5-x-10-x-10-9-----------|
A|3-3-x-7-x-7-5---7-7-x-7-x-7-3---2-2-x-7-x-7-5---5-5-x-8--x-8--7-----------|
E|----------------5-5-x-----------0-0-x-----------3-3-x---------------------|

e|--------------------------------------------------------------------------|
B|--------------------------------------------------------------------------|
G|5-5-x-9-x-9-7---------9-x-9-5---------9-x-9-7---------10-x-10-9-----------|
D|5-5-x-9-x-9-7---7-7-x-9-x-9-5---2-2-x-9-x-9-7---5-5-x-10-x-10-9-----------|
A|3-3-x-7-x-7-5---7-7-x-7-x-7-3---2-2-x-7-x-7-5---5-5-x-8--x-8--7-----------|
E|----------------5-5-x-----------0-0-x-----------3-3-x---------------------|

Verse:
C     Am                 Em
Vulcanize the whoopee stick

G
in the ham wollet

C      Am                 Em
cattle prod the oyster ditch

G
with the lap rocket

C     Am              Em
batter dip the cranny ax

G
in the gut locker

C        Am                     Em
retrofit the pudding hatch ohh lala
e|-0-3---x---x-xxxxxx---|
B|-0-0---x---x-xxxxxx---|
G|-0-0---x---x-xxxxxx---|   (connects the verse with the refrain)
D|-2-0---x---x-xxxxxx---|
A|-2-2---x---x-xxxxxx---|
E|-0-3---x---x-xxxxxx---|

with the boing swatter

Chorus:
F
If I get you in the loop when I make a point to be straight with you then

C                       G
in lieu of the innuendo in the end know my intent though

F
I brazilien wax poetic so pathetically

C             G
I don't wanna beat around the bush


C          Am         Em         G
Foxtrot... Uniform... Charlie... Kilo...

C          Am         Em         G
Foxtrot... Uniform... Charlie... Kilo...


Outro:
(quite similar with the intro, but in the original song there are two guitars so you
to play something a little different that it sounds different... this is the version i
if you're creative you can create your own outro or just play the 'foxtrot uniform 
kilo' part again, the second guitar plays this.)
e|--------------------------------------------------------------------------|
B|--------------------------------------------------------------------------|
G|5-5-xx9-xx9-7---------9-xx9-5---------9-xx9-7---------10-xx10-9-xx--------|
D|5-5-xx9-xx9-7-xx7-7-xx9-xx9-5-xx2-2-xx9-xx9-7-xx5-5-xx10-xx10-9-xx--------|
A|3-3-xx7-xx7-5-xx7-7-xx7-xx7-3-xx2-2-xx7-xx7-5-xx5-5-xx8--xx8--7-xx--------|
E|--------------xx5-5-xx--------xx0-0-xx--------xx3-3-xx--------------------|

e|----------------------------------------------------------------xx0-------|
B|----------------------------------------------------------------xx1-------|
G|5-5-xx9-xx9-7---------9-xx9-5---------9-xx9-7---------10-xx10-9-xx0-------|
D|5-5-xx9-xx9-7-xx7-7-xx9-xx9-5-xx2-2-xx9-xx9-7-xx5-5-xx10-xx10-9-xx2-------|
A|3-3-xx7-xx7-5-xx7-7-xx7-xx7-3-xx2-2-xx7-xx7-5-xx5-5-xx8--xx8--7-xx3-------|
E|--------------xx5-5-xx--------xx0-0-xx--------xx3-3-xx--------------------|
Tap to rate this tab
 
# A B C D E F G H I J K L M N O P Q R S T U V W X Y Z