Bloodhound Gang - Fire Water Burn tab

I made this song because nobody made it, have fun

Artist: Bloodhound Gang
Song: Fire Water Burn (Jim Makin Jamaican Mix)
Album: Fire Water Burn



E-5---3-3-|
B-5---3-3-|
G---------|
D---------|
A---------|
E---------|

E-3-5-7-5-3--3-3-|
B-3-5-7-5-3--3-3-|
G----------------|
D----------------|
A----------------|
E----------------| x7

E-3-5-7-5-3--3-|
B-3-5-7-5-3--3-|
G--------------|
D--------------|
A--------------|
E--------------| x3


E-3-5-7-5-3-|
B-3-5-7-5-3-|
G-----------|
D-----------|
A-----------|
E-----------|

E-10-9-10-9-10-9-10-9-8-7-8-7-8-------|
B-10-9-10-9-10-9-10-9-8-7-8-7-8-------|
G-------------------------------------|
D-------------------------------------|
A-------------------------------------|
E-------------------------------------|

E-5---7--7-7--5-7-7--7-8-7-|
B-5---7--7-7--5-7-7--7-8-7-| 
G--------------------------|
D--------------------------|
A--------------------------|
E--------------------------|

E-7--7-7--5-7-7--7-8-7-|
B-7--7-7--5-7-7--7-8-7-| 
G----------------------|
D----------------------|
A----------------------|
E----------------------| x6

E-3-------7-8-7--3-|
B-3-------7-8-7--3-|
G------------------|
D------------------|
A------------------|
E------------------|

E-3----7-----|
B-3----7-----|
G------------|
D------------|
A------------|
E------------|
              
E-7----3-----|
B-7----3-----|
G------------|
D------------|
A------------|
E------------|

E-3----7-----|
B-3----7-----|
G------------|
D------------|
A------------|
E------------|
              
E-7----3-----|
B-7----3-----|
G------------|
D------------|
A------------|
E------------|

E-3----7-----|
B-3----7-----|
G------------|
D------------|
A------------|
E------------|

E-5----8-----|
B-5----8-----|
G------------|
D------------|
A------------|
E------------|

E-8----3-----|
B-8----3-----|
G------------|
D------------|
A------------|
E------------|

E-7-5-7-5--3-|
B-7-5-7-5--3-|
G------------|
D------------|
A------------|
E------------|

E-3----7-----|
B-3----7-----|
G------------|
D------------|
A------------|
E------------|
              
E-7----3-----|
B-7----3-----|
G------------|
D------------|
A------------|
E------------|

E-3----7-----|
B-3----7-----|
G------------|
D------------|
A------------|
E------------|
              
E-7----3-----|
B-7----3-----|
G------------|
D------------|
A------------|
E------------|

E-3----7-----|
B-3----7-----|
G------------|
D------------|
A------------|
E------------|

E-5----8-----|
B-5----8-----|
G------------|
D------------|
A------------|
E------------|

E-8----3-----|
B-8----3-----|
G------------|
D------------|
A------------|
E------------|

E-7-5-7-5--3-|
B-7-5-7-5--3-|
G------------|
D------------|
A------------|
E------------|

E-3-5-7-5-3--3-|
B-3-5-7-5-3--3-|
G--------------|
D--------------|
A--------------|
E--------------| x2

E-3-5-7-5-3-|
B-3-5-7-5-3-|
G-----------|
D-----------|
A-----------|
E-----------|

E-10-9-10-9-10-9-10-9-8-7-8-7-8-------|
B-10-9-10-9-10-9-10-9-8-7-8-7-8-------|
G-------------------------------------|
D-------------------------------------|
A-------------------------------------|
E-------------------------------------|

E-5---7--7-7--5-7-7--7-8-7-|
B-5---7--7-7--5-7-7--7-8-7-| 
G--------------------------|
D--------------------------|
A--------------------------|
E--------------------------|

E-7--7-7--5-7-7--7-8-7-|
B-7--7-7--5-7-7--7-8-7-| 
G----------------------|
D----------------------|
A----------------------|
E----------------------|x6

E-3-------7-8-7--3-|
B-3-------7-8-7--3-|
G------------------|
D------------------|
A------------------|
E------------------|

E-3----7-----|
B-3----7-----|
G------------|
D------------|
A------------|
E------------|
              
E-7----3-----|
B-7----3-----|
G------------|
D------------|
A------------|
E------------|

E-3----7-----|
B-3----7-----|
G------------|
D------------|
A------------|
E------------|
              
E-7----3-----|
B-7----3-----|
G------------|
D------------|
A------------|
E------------|

E-3----7-----|
B-3----7-----|
G------------|
D------------|
A------------|
E------------|

E-7----3-----|
B-7----3-----|
G------------|
D------------|
A------------|
E------------|

----------------------------------------------
--------------[SHORT-BREAK]-------------------
----------------------------------------------
              
E-7----3-----|
B-7----3-----|
G------------|
D------------|
A------------|
E------------|

E-3----7-----|
B-3----7-----|
G------------|
D------------|
A------------|
E------------|
              
E-7----3-----|
B-7----3-----|
G------------|
D------------|
A------------|
E------------|

E-3----7-----|
B-3----7-----|
G------------|
D------------|
A------------|
E------------|
              
E-7----3-----|
B-7----3-----|
G------------|
D------------|
A------------|
E------------|

E-3----7-----|
B-3----7-----|
G------------|
D------------|
A------------|
E------------|

E-5----8-----|
B-5----8-----|
G------------|
D------------|
A------------|
E------------|

E-8----3-----|
B-8----3-----|
G------------|
D------------|
A------------|
E------------|

E-7-5-7-5--3-|
B-7-5-7-5--3-|
G------------|
D------------|
A------------|
E------------|

E-3-5-7-5-3--3-|
B-3-5-7-5-3--3-|
G--------------|
D--------------|
A--------------|
E--------------| x2

E-3-5-7-5-3-|
B-3-5-7-5-3-|
G-----------|
D-----------|
A-----------|
E-----------|

E-10-9-10-9-10-9-10-9-8-7-8-7-8-------|
B-10-9-10-9-10-9-10-9-8-7-8-7-8-------|
G-------------------------------------|
D-------------------------------------|
A-------------------------------------|
E-------------------------------------|


E-5---7--7-7--5-7-7--7-8-7-|
B-5---7--7-7--5-7-7--7-8-7-| 
G--------------------------|
D--------------------------|
A--------------------------|
E--------------------------|

E-7--7-7--5-7-7--7-8-7-|
B-7--7-7--5-7-7--7-8-7-| 
G----------------------|
D----------------------|
A----------------------|
E----------------------|x6

E-3-------7-8-7--3-|
B-3-------7-8-7--3-|
G------------------|
D------------------|
A------------------|
E------------------|

--------------------------------------------
--------------[LONG-BREAK]------------------
--------------------------------------------


E-7-8-7--7-7-|
B-7-8-7--7-7-|
G------------|
D------------|
A------------|
E------------|x8


E-7-8-7-|
B-7-8-7-|
G-------|
D-------|
A-------|
E-------|


E-7--7-7--5-7-7--7-8-7-|
B-7--7-7--5-7-7--7-8-7-| 
G----------------------|
D----------------------|
A----------------------|
E----------------------| x12 (untill the end of the song)
Tap to rate this tab
 
# A B C D E F G H I J K L M N O P Q R S T U V W X Y Z