Song name
# A B C D E F G H I J K L M N O P Q R S T U V W X Y Z

Bloodhound Gang - Whys Everybody Always Pickin On Me tab

Tuning: Standard
I only did the Riff that Dan Carter made (not the riff sampled from Depeche Mode)
This Part is the DJ Part (its fun to do if u got a 2nd guitarist)

Eb|--------------------------------------------------|
Bb|--------------------------------------------------|
Gb|--------------------------------------------------|
Db|--------------------------------------------------|
Ab|--15/16-------------------------------------------|
Eb|--------------------------------------------------|

Now here's the Guitar (thats the main riff)

Eb|-09-09-09-09-09--------7-7---7---------------------------------|
Bb|-10-10-10-10-10--------9-9---9---------------------------------|
Gb|-11-11-11-11-11--------9-9---9---------------------------------|
Db|-12-12-12-12-12--------7-7---7---------------------------------|
Ab|-----------------------7-7---7---------------------------------|
Eb|---------------------------------------------------------------|

That's just about it.

I wanna note that the guitar i transcribed is how Dan plays it LIVE. i heard him play 
this from a clipp of Bloodhound Gang on Oddville.

Have fun playing, i love this song.
Tap to rate this tab
 
# A B C D E F G H I J K L M N O P Q R S T U V W X Y Z