Song name
# A B C D E F G H I J K L M N O P Q R S T U V W X Y Z

Bloodhound Gang - The Bad Touch tab

I've seen multiple tabs for this song, but never for the whole thing. 
So here you are. The whole song. (I tabbed this off a piano video, so the
notes are accurate) NOTE: Do not worry about any spaces on the tab board.
This is just to help align notes up.
KEY: x= Deaden (mute)
p= Pull-Off
h= Hammer-On
__> = Deaden for certain amount of notes.
()= Optional Note
""= Scratch
*= Important Notification

INTRO [Played twice)
G------------------------------33-------------------
D----------3-----3----------------5-3-----3---------
A--333-3-6---3-6---6-3-5p3--33--------3-6---6-3-6h8-
E---------------------------------------------------
   xxx____________________________________________>

VERSE 1 [Played 4 times]  *The '10101010' are tens. These are power chords.
G----------------------------------------------
D-------------------88888888-------------------
A--1010101010101010-66666666-88888888-66666666-
E--8 8 8 8 8 8 8 8 ----------66666666-44444444-
   x x x_____________________________________>
   Sweat baby sweat baby...

CHORUS 1 [Played twice] *Turn on distortion now.
G--------------------------------------------------
D-------------------888/10-888""-------------------
A--1010101010101010-666/8 -666""-88888888-66666666-
E--8 8 8 8 8 8 8 8 --------------66666666-44444444-
You and me baby ain't...

SOLO 1 [Played twice] *Keep distortion.
E--3--33-4-43-4-3-------33-4-43-4-3-6-3--33-4-43-4-3---------------
B---1-------------(4)--------------------------------444-4-6p4-6p4-
G---------------------3--------------------------------------------
D------------------------------------------------------------------

PRELUDE
[Just replay the INTRO. They are the same thing.] *Distortion off.

VERSE 2
[Same as VERSE 1]

CHORUS 2
[Same as CHORUS 1]

SOLO 2
[Same as SOLO 1]

*Now wait two chorus time-lengths before starting up the chorus again.

CHORUS 3
[Same as CHORUS 1,2]

SOLO 3
[Same as SOLO 1,2. Play to fade out.]

There you have it. I apologize for not tabbing every single bit out. But I
figured, "Hey, this song is very repetitive." So the only parts to play are
tabbed and you just keep replaying them over and over. BAM. Time saver.
Have fun iwth it. Mess around, tweak it, do whatever.
I would also like to recommend listening to the song over and over whilst
learning this tab. Some rythm of the song is difficult to get down.
Tap to rate this tab
 
# A B C D E F G H I J K L M N O P Q R S T U V W X Y Z