Song name
# A B C D E F G H I J K L M N O P Q R S T U V W X Y Z

Bloodhound Gang - Mope tab

Artist: Bloodhound Gang 
Song: Mope  
Album: Horray for Boobies

Not much guitar, but I hope that anyone who listened to this noticed the Metallica riff.

Send me an e-mail at guitarist.w.badminton.racquets@gmail.com and let me know what you think.

Talking Intro - No guitar
'We gonna drop this next bomb...'

Drum/Girl Intro - No guitar
'Rock me Amadeus?...' 

Verse
-this part isn't in the song, but if you play it during the verse it sounds good with the bass
  
/---P.M.---\
E|------------|
B|------------|
G|------------|
D|-2--2--2--2-|
A|-2--2--2--2-|
E|-0--0--0--0-|
   H  H  H  H

Pre-Chorus

E|-------------|
B|-------------|
G|-------------|
D|-4--4--4--4--|
A|-4--4--4--4--|
E|-2--2--2--2--|

"For Whom the Bell Tolls" Riff       
Chorus Pt. 1

E|------------------------------|
B|------------------------------| 
G|-----12-11-10-9------12-------| 
D|-2--------------10-9----------|
A|-2----------------------10-9/-|
E|-0----------------------------|                                         

"For Whom the Bell Tolls" Riff
Chorus Pt 2.

E|----------------------------------------| 
B|----------------------------------------| 
G|---------------12-11-10-9------12-------| 
D|-4----4----2--------------10-9----------| 
A|-4----4----2----------------------10-9/-| 
E|-2----2----0----------------------------| 

"For Whom the Bell Tolls" Riff
Chorus Pt 3.      

E|----------------------------------------|
B|----------------------------------------| 
G|---------------12-11-10-9------12-------| 
D|-4-4--4-4--2--------------10-9----------|
A|-4-4--4-4--2----------------------10-9/-| 
E|-2-2--2-2--0----------------------------| 


"For Whom the Bell Tolls" Riff
Chorus Pt.4 

E|----------------------------------------------|
B|----------------------------------------------| 
G|---------------12-11-10-9------12-------------| 
D|-4----4----2--------------10-9----------4---4-|
A|-4----4----2----------------------10-9/-4---4-| 
E|-2----2----0----------------------------2---2-| 

Post-Chorus - No guitar
'Relax, don't do it...'

Bridge - No guitar
'I'm mighty tighty whitey...'

Alvin & the Chipmunks, Batman, Drugs - No guitar
'Yo yo yo yo yo!...' 

Pacman Pt.1

E|-9-4----9------10-5----10----|
B|-----5----5--------5------5--|
G|-----------------------------|
D|-----------------------------|
A|-----------------------------|
E|-----------------------------|

Pacman Pt.2

E|-9-4----9------------9-10-|
A|-----5----5---------9-----|
G|------------------10------|
D|--------------------------|
A|--------------------------|
E|--------------------------|

Outro - Again, like the verse isn't in the song but sounds good added in.
'Holy macaroni, Holy macaroni...'  

  /---P.M.---\
E|------------|
B|------------|
G|------------|
D|-2--2--2--2-|
A|-2--2--2--2-|
E|-0--0--0--0-|
   H  H  H  H

End on

E|---|
B|---|
G|---|
D|---|
A|---|
E|-0-|
                                     

ORDER
(0:00)Talking Intro
(0:18)Drum/Girl Intro 
(0:38)Verse x15
(1:10)Pre-Chorus x1
(1:12)Chorus Pt.1 x1
(1:15)Chorus Pt.2 x1
(1:20)Chorus Pt.3 x1
(1:24)Chorus Pt.4 x1
(1:29)Post Chorus
(1:46)Verse x15
(2:18)Pre-Chorus x1
(2:20)Chorus Pt.1 x1
(2:24)Chorus Pt.2 x1
(2:28)Chorus Pt.3 x1
(2:32)Chorus Pt.4 x1
(2:38)Post Chorus
(2:55)Bridge
(3:11)Alvin & the Chipmunks, Batman, Drugs
(3:36)Pacman Pt.1 x3
(3:42)Pacman Pt.2 x1
(3:44)Chorus Pt.1 x1
(3:48)Chorus Pt.2 x1
(3:52)Chorus Pt.3 x1
(3:56)Chorus Pt.4 x1
(4:01)Post Chorus
(4:18)Outro x7
(4:34)End on
Tap to rate this tab
 
# A B C D E F G H I J K L M N O P Q R S T U V W X Y Z