Song name
# A B C D E F G H I J K L M N O P Q R S T U V W X Y Z

Bloodhound Gang - Vagina Song tab

Jesus Christ it's hard to find a decent tab of this. What are those first two posts on
this site? Why do you even post that? Who does that help? 2 f*cking chords?


Bloodhound Gang
The Vagina Song

Standard Tuning

Intro
E|-2-----2-----0--------0--2-----2------0--2--3---0-| (3 times)
B|----3-----3-----2-----------3-----3---------------|
G|-------------------2------------------------------|
D|--------------------------------------------------|
A|--------------------------------------------------|
E|--------------------------------------------------|

E|-2-----2-----0--------0--2--2--2--2--5--5--5--5---|
B|----3-----3-----2---------------------------------|
G|-------------------2------------------------------|
D|--------------------------------------------------|
A|--------------------------------------------------|
E|--------------------------------------------------|
Pre-Verse
E|--------------------------------------------------| (2 times)
B|--------------------------------------------------|
G|--7--7--7--------------6-----------------------6--|
D|--7--7--7--4--7--7--7--6--9--9--9--4--7--7--7--6--|
A|--5--5--5--4--7--7--7--4--9--9--9--4--7--7--7--4--|
E|-----------2--5--5--5-----7--7--7--2--5--5--5-----|
Verse
E|--------------------------------------------------|
B|--------------------------------------------------|
G|--------------------------------------------------|
D|----7-----7-----7-----------7-----7-----7---------|
A|-5-----5-----5-----3--4--5-----5-----5-----3--4---|
E|--------------------------------------------------|

E|--------------------------------------------------|
B|--------------------------------------------------|
G|--------------------------------------------------|
D|--------------------------------------------------|
A|----7-----7-----7-----------7----7----7-----------|
E|-5-----5-----5-----3--4--5-----5-----5-----3--4---|

E|--------------------------------------------------|
B|--------------------------------------------------|
G|--------------------------------------------------|
D|--------------------------------------------------|
A|----9-----9-----9------------9----9-----9---------|
E|-7-----7-----7-----5--6--7-----7-----7-----5--6---|

E|--------------------------------------------------|
B|--------------------------------------------------|
G|--------------------------------------------------|
D|--------------------------------------------------|
A|----7-----7-----7-----------7----7----7-----------|
E|-5-----5-----5-----3--4--5-----5-----5-----3--4---|

E|--------------------------------------------------|
B|--------------------------------------------------|
G|-------------------------------------7--7--7--7---|
D|-------------4--4--4--4--7--7--7--7---------------|
A|-5--5--5--5---------------------------------------|
E|--------------------------------------------------|

E|--------------------------------------------------|
B|--------------------------------------------------|
G|--------------------------------------------------|
D|-------------------------------------9--9--9--9---|
A|-------------6--6--6--6--9--9--9--9---------------|
E|-7--7--7--7---------------------------------------|

E|--------------------------------------------------|
B|--------------------------------------------------|
G|-------------------------------------7~-----------|
D|-------------4--4--4--4--7--7--7--7---------------|
A|-5--5--5--5---------------------------------------|
E|--------------------------------------------------|

Chorus

etc
Tap to rate this tab
# A B C D E F G H I J K L M N O P Q R S T U V W X Y Z