Song name
# A B C D E F G H I J K L M N O P Q R S T U V W X Y Z

Bloodhound Gang - Your Pretty When Im Drunk tab

"guitar" 1 plays this in the intro
and the outro
e-----------------------------|
B-8-8-8-8-6h8-6---------------|
G---------------5-5-5-5-3h5-3-|
D-----------------------------|
A-----------------------------|
E-----------------------------|

"guitar" 2 plays this a couple
of times on outro
e-----------7---------------|
B-8-8-8-6h8---8-8-8-6h8-8p6-|
G---------------------------|
D---------------------------|
A---------------------------|
E---------------------------|

then does this
e-----------7-|
B-8-8-8-6h8---|a-ha a-ha
G-------------|
D-------------|
A-------------|
E-------------|


thats it! really simple.


if you have a question, need the lyrics, or want me to be your new stalker,
email me at fuser158@sbcglobal.net


please rate, i'd do the same for you


ug and me, hehe, that rhymes


by the way, if you want any bloodhoundgang song or video, just tell me (see email above)
Tap to rate this tab
 
# A B C D E F G H I J K L M N O P Q R S T U V W X Y Z