Song name
# A B C D E F G H I J K L M N O P Q R S T U V W X Y Z

Bloodhound Gang - Ralph Wiggum tab

Song:  Ralph Wiggum
Band:  The Bloodhound Gang
Album: Hefty Fine - 2005

Tabbed by:  fasterdisco@gmail.com

Standard tuning.


Verse:
            8x         8x          1x
E------|----------|-----------|-----------|
B------|----------|-----------|-----------|
G------|-2-2-2-2--|-----------|-----------|
D---2--|-2-2-2-2--|--4-4-4-4--|-2-2-2-2---|
A---2--|-0-0-0-0--|--4-4-4-4--|-2-2-2-2---|
E---0--|----------|--2-2-2-2--|-0-0-0-0---|


Solo:

Variation #1

E---------------------------------------------------------|
B--------------------------------------------2-2-3-3-2-2--|
G---------------------------------------------------------|
D--2-2-4-2----------------------6-6-4-4-2-2---------------|
A-----------4-5-4--2-4-2-4-4-0-0--------------------------|
E---------------------------------------------------------|

Variation #2 (same notes, higher on the fretboard, sounds more like the way Lupus plays 
on the record.)

E--------------------------------------------------------------------|
B--------------------------------------------------------------------|
G--------------------------------------------------------------------|
D-------------------------------------------------11-11-12-12-11-11--|
A--7-7-9-7-------------------------11-11-9-9-7-7---------------------|
E----------9-10-9--7-9-7-9-9-5-5-------------------------------------|


Chorus:

Raplhie ....

4x

E------------|
B------------|
G--7-7-7-7---|
D--7-7-7-7---|
A--5-5-5-5---|
E------------|


Get off ...

4x

E-----------------|
B-----------------|
G-----------------|
D--4-4-4-4--------|
A--4-4-4-4--------|
E--2-2-2-2--------|


The stage ...

4x

E------------|
B------------|
G------------|
D--2-2-2-2---|
A--2-2-2-2---|
E--0-0-0-0---|


Sweetheart ...

4x - then back to beginning and repeat (Oh say can you ROCK!  I'm a pop sensation/yvan eht nioj ...)

E------------|
B------------|
G--4-4-4-4---|
D--4-4-4-4---|
A--2-2-2-2---|
E------------|
Tap to rate this tab
# A B C D E F G H I J K L M N O P Q R S T U V W X Y Z