Song name
# A B C D E F G H I J K L M N O P Q R S T U V W X Y Z

Bloodhound Gang - Lift Your Head Up High And Blow Your Brains Out Live tab

Song: Lift Your Head Up High (And Blow Your Brains Out) [live]
Artist: The Bloodhound Gang
Guitar-player: Lüpüs Thünder
Tuning: Standard

Here we go:

e|----------------------|
B|----------------------|
G|----------------------|
D|-5---3-5---3-5---1-3--|
A|-5---3-5---3-5---1-3--|
E|-3---1-3---1-3---1-3--|

"Cause life is a game that no one wins but you deserve a headstart the way your life's goin'"

e|----------------------|
B|----------------------|
G|----------------------|
D|-5---3-5---3-5---1-3--|
A|-5---3-5---3-5---1-3--|
E|-3---1-3---1-3---1-3--|

"So throw in the towel cause your life ain't shit. No take that towel and hang yourself with it"

e|----------------------|
B|----------------------|
G|----------------------|
D|-5---3-5---3-5---1-3--|
A|-5---3-5---3-5---1-3--|
E|-3---1-3---1-3---1-3--|

"Life's short and hard like a body-building elf so save the planet and kill yourself "

e|----------------|
B|----------------|
G|----------------|
D|-5--5--5--5--5--|
A|-5--5--5--5--5--|
E|-3--3--3--3--3--|

"If your feeling down-and-out with what your life is all about"


LIFT YOUR HEAD UP HIGH AND BLOW YOUR BRAINS OUT!


That's all. Please note that this is the live-version of the song!

Please rate and comment!
Tap to rate this tab
 
# A B C D E F G H I J K L M N O P Q R S T U V W X Y Z