Song name
# A B C D E F G H I J K L M N O P Q R S T U V W X Y Z

Bloodhound Gang - Screwing You On The Beach At Night tab

-----------------------------------------------------------------------------
Screwing You On The Beach At Night - Bloodhound Gang
-----------------------------------------------------------------------------
Tuning : standard
Intro Guitar

e----5-7-5------------------------------------|
B--7--------7--5-7-8--7--------------7-7--5---|
G-----------------------7-----6-7-6-----------|
D--------------------------9------------------|
A---------------------------------------------|
E---------------------------------------------|


e----5-7-5------------------------------------|
B--7--------7--5-7-8--7--------------7-7--5---|
G-----------------------7-----6-7-6-----------|
D--------------------------9------------------|
A---------------------------------------------|
E---------------------------------------------|


I hope you like it :)
Tap to rate this tab
# A B C D E F G H I J K L M N O P Q R S T U V W X Y Z