Song name
# A B C D E F G H I J K L M N O P Q R S T U V W X Y Z

Bloodlet - Eucharist tab

e: Fri, 17 Apr 1998 22:13:27 +0200
From: Lars Ekman 
Subject: b/bloodlet/eucharist.tab

Artist: Bloodlet
Song: Eucharist 
Album: Entheogen
Transcribed by: Lars Ekman (evil.elvis@swipnet.se)

Tune down the E string to D (drop-D tuning).

p = palm mute
/ = slide (pull off)
b = bend


Riff 1:
A --0----------4--1----------4--0----------4--1--------4------
D --0----6--7-----1----6--7-----0----6--7-----1----6-7---7-6--
                                                   p p p p p

Riff 2:
A --0--1-0-0-1-0-0-1-0-0-5-0-0-6-5-0--1-0-0-1-0-0-1-0-0-6--
D --0--1-0-0-1-0-0-1-0-0-5-0-0-6-5-0--1-0-0-1-0-0-1-0-0-6--
       p p p p p p p p p p p p p p    p p p p p p p p p

End #1 to riff 2 (guitar 1):
A --0--0----6-7-2--
D --0--0----6-7-2--

End #2 to riff 2 (guitar 2):
G --7--7-----------
D --7--7-----------
A --5--5----6-7-2--
D ----------6-7-2--

End #3 to riff 2 (played only in the very end of the song):
G --7--6--
D --7--6--
A --5--4--


Riff 3 (somewhat unsure of this):
A --7/6-0-0-3/4-0-7/6-0-7/6-0-5/7--
D --7/6-0-0-3/4-0-7/6-0-7/6-0-5/7--
        p p     p     p     p 


Riff 4:
D -------------------7-6-------------8-7---------8-7--------
A --0--0--0--0--0-0------8-/7---0-7------5-/4--0------3--2--
E --0--0--0--0--0-0------8--8------------5--5---------3--2--
       p  p  p  p p  b               b                  


Figure out the song structure for yourself. Let the CD guide
you.
Tap to rate this tab
 
# A B C D E F G H I J K L M N O P Q R S T U V W X Y Z