Song name
# A B C D E F G H I J K L M N O P Q R S T U V W X Y Z

Bloodlined Calligraphy - Shall We Dance tab

intro to crazy hardcore sweet song
m= palm mute

i used normal tuning for this tab.


--------------------------------------|
--------------------------------------|
--------------------------------------|
-4-5-2--------------------------------|
-4-5-2--------------------------------|
-2-3-0--0-0-0--0-0--0-0--00-----------|
        m m m  m m  m m  mm

--------------------------------------|
--------------------------------------|
--------------------------------------|
-4-5-2--------------------------------|
-4-5-2--------------------------------|
-2-3-0--0-0-0--0-0--0-0--00-----------|
        m m m  m m  m m  mm
Tap to rate this tab
 
# A B C D E F G H I J K L M N O P Q R S T U V W X Y Z