Song name
# A B C D E F G H I J K L M N O P Q R S T U V W X Y Z

Bloodsimple - Flatlined tab

Help us improve GuitareTab! Take a short survey!
I'm not positive about the rythym so you'll just have to
listen to the song while playing


E--------------------------------------------------------|
B--------13h15---13---15h10------------------------------|
G---12---------------------------------------------------|
D--------------------------------------------------------|
A--------------------------------------------------------|
E--------------------------------------------------------|


E--------------------------------------------------------|
B--------13h15---13---15h10-----11-----------------------|
G---12---------------------------------------------------|
D--------------------------------------------------------|
A--------------------------------------------------------|
E--------------------------------------------------------|


E---------------------------------------------------------|
B--------13h15---13---15h10-----11------------------------|
G---12-------------------------------12--14--10------10h7-|
D---------------------------------------------------------|
A---------------------------------------------------------|
E---------------------------------------------------------|
Related for Flatlined tab