Song name
# A B C D E F G H I J K L M N O P Q R S T U V W X Y Z

Bloodsimple - What If I Lost It tab

Atrist: Bloodsimple
Song: What If I Lost It
Album: A Cruel World
Tunning: Drop A# (A# F A# D# G C))
Tabber: Majin Gaara

The bands 2nd Single
Another great song and pretty easy to play!
intro is 100% correct, enjoy guys!

Tab Legend:
V - Vibrato
. - Palm Mute
^ - Gradual 1/2 bends
^^ - Gradual 1 1/2 bend
> start off bending down to normal

INTRO
C |-------------------------------|
G |-------------------------------|
D#|-------------------------------|
A#|---------8---------7V----------|
F |-7-7-0-7---5-7-0-5---5-8-0-0---|
A#|-7-7-0-7---5-7-0-5---5-8-0-0---| X3
     
|------------------------|
|------------------------|
|------------------------|
|---------8---------7----|
|-7-7-0-7---5-7-0-5------|
|-7-7-0-7---5-7-0-5------|

Guitar 2 plays this while guitar 1
plays the above
(Do gradual bends)
|-----------------------------|
|-----------------------------|
|-----------------------------|
|--7^------8^-----8^V-----9^--|
|-----------------------------|
|-----------------------------|

VERSE
|--------------------------|
|--------------------------|
|--------------------------|
|--------------------------|
|-7-7-5-7--7-7-5-7--7-8-7--|
|-7-7-5-7--7-7-5-7--7-8-7--| X3
  . . . .  . . . .  . . .

|--------------------------|
|--------------------------|
|--------------------------|
|--------------------------|
|-7-7-5-7--7-7-5-7--7-8-7--|
|-7-7-5-7--7-7-5-7--7-8-7--|
  . . . .  . . . .  

|-------------------------------|
|-------------------------------|
|-------------------------------|
|---------8---------7V----------|
|-7-7-0-7---5-7-0-5---5-8-0-0---|
|-7-7-0-7---5-7-0-5---5-8-0-0---| X3 

|-------------------------------|
|-------------------------------|
|-------------------------------|
|---------8---------7V----------|
|-7-7-0-7---5-7-0-5---8-8-8-8---|
|-7-7-0-7---5-7-0-5---8-8-8-8---|

PRE CHORUS 
(repeat this whole prechorus X2)
|--------------------------------------------------|
|--------------------------------------------------|
|--------------------------------------------------|
|------------5-5-5-5-5-----------------------------|
|-0-0-0-0-0--3-3-3-3-3--5-5-5-5-5--3-3-3-3-3/5\3-0-|
|-0-0-0-0-0-------------5-5-5-5-5--3-3-3-3-3/5\3-0-|
  . . . .    . . . .    . . . .    . . . .

|--------------------------------------------------|
|--------------------------------------------------|
|--------------------------------------------------|
|------------5-5-5-5-5-----------------------------|
|-0-0-0-0-0--3-3-3-3-3--5-5-5-5-5--8-8-8-8-8-8-8-8-|
|-0-0-0-0-0-------------5-5-5-5-5--8-8-8-8-8-8-8-8-| 
  . . . .    . . . .    . . . .    . . . . . . . .

Guitar 2 plays this at the
end of the above riff
|------------------|
|------------------|
|-/99999/11/12/14--|
|--xxxxx-x--x--x---|
|-/77777/9-/10/12--|
|------------------|             
   

PRE VERSE
|-------------------------------|
|-------------------------------|
|-------------------------------|
|---------8---------7V----------|
|-7-7-0-7---5-7-0-5---5-8-0-0---|
|-7-7-0-7---5-7-0-5---5-8-0-0---| 
     
|------------------------|
|------------------------|
|------------------------|
|---------8---------7----|
|-7-7-0-7---5-7-0-5------|
|-7-7-0-7---5-7-0-5------|

Guitar 2 plays this lead
|--------------------|
|--------------------|
|--4^-----------4v---|
|--------------------|
|--------------------|
|--------------------|

Play VERSE

Guitar plays this during 2nd Verse
|--------------------|
|----------------16>-|
|--4^^---------------|
|--------------------|
|--------------------|
|--------------------|

Play PRE CHORUS 2X

CHORUS
|-----------------------------------------------------|
|-----------------------------------------------------|
|-----------------------------------------------------|
|---------------------------------------------7-7-7-7-|
|-----------------------------------------------------|
|-0-7h8p7-7-7-7h8p7-7-7-7-7-0-7h8p7-7-7-7h8p7---------|

BRIDGE
|-------------------------------|
|-------------------------------|
|-------------------------------|
|-5---5-------------------------|
|-3---5---7--7h8p7--7--7--7h8p7-|
|-----5---7--7h8p7--7--7--7h8p7-| X4

After 2 times guitar 2 plays this
|---------------------------------|
|---------------------------------|
|-5---5---5---5---4---4---4---4---|
|---7---7---7---7---5---5---5---5-|
|---------------------------------|
|---------------------------------| 
  . . . . . . . . . . . . . . . .

|-----------------------|
|-----------------------|
|-----------------------|
|-----------------------|
|-7--7h8p7--7--7--7h8p7-|
|-7--7h8p7--7--7--7h8p7-| X4

Play PRE CHORUS

Play INTRO 3X






Tap to rate this tab
 
# A B C D E F G H I J K L M N O P Q R S T U V W X Y Z