Song name
# A B C D E F G H I J K L M N O P Q R S T U V W X Y Z

Bloodsoaked - Self Mutilation tab

-----------------------------------------------------------------
SONG NAME: Self Mutilation - Band Name: BLOODSOAKED
-----------------------------------------------------------------
Tabbed by: Peter Hasselbrack
Email: phasselbrack@hotmail.com

Web Site: http://www.bloodsoaked.us
Web Site: http://www.myspace.com/bloodsoakedband
Web Site: http://profile.ultimate-guitar.com/Bloodsoaked


Tuning: D-G-C-F-A-D



(Intro) Played 4 times
D|--------------------------------------------------------------------|
A|--------------------------------------------------------------------|
F|--------------------------------------------------------------------|
C|---------4-3-5-4---------4-3-5-4---------4-3-5-4---------4-3-5-4----|
G|-4-3-5-4-2-1-3-2-4-3-5-4-2-1-3-2-4-3-5-4-2-1-3-2-4-3-5-4-2-1-3-2----|
D|-2-1-3-2---------2-1-3-2---------2-1-3-2---------2-1-3-2------------|


(Main Riff - Played 3 times)
D|--------------------------------------------------------------------|
A|--------------------------------------------------------------------|
F|--------------------------------------------------------------------|
C|--------------------------------------------------------------------|
G|--------------------------------------------------------------------|
D|-0-0-0-0-0-0-0-0-0-0-0-0-0-0-0-0-2-2-2-2-1-1-1-1-4-4-4-4-3-3-3-3----|

(Main Riff Continued - Played once)
D|--------------------------------------------------------------------|
A|--------------------------------------------------------------------|
F|--------------------------------------------------------------------|
C|--------------------------------------------------------------------|
G|---------------------------------7-6-4-7----------------------------|
D|-0-0-0-0-0-0-0-0-0-0-0-0-0-0-0-0-5-4-6-5----------------------------|

(End of Main Riff - Played once)
D|--------------------------------------------------------------------|
A|--------------------------------------------------------------------|
F|--------------------------------------------------------------------|
C|---------7-6-4-7---------7-6-4-7---------7-6-4-7---------7-6-4-7----|
G|-7-6-4-7-5-4-6-5-7-6-4-7-5-4-6-5-7-6-4-7-5-4-6-5-7-6-4-7-5-4-6-5----|
D|-5-4-6-5---------5-4-6-5---------5-4-6-5---------5-4-6-5------------|

(Chorus Riff - Played 3 times)
D|--------------------------------------------------------------------|
A|--------------------------------------------------------------------|
F|--------------------------------------------------------------------|
C|--------------------------------------------------------------------|
G|--------------------------------------------------------------------|
D|-2-2-2-2-3-3-3-3-2-2-2-2-3-3-3-3-2-2-2-2-3-3-3-3-6-6-6-6-5-5-5-5----|

(Chorus Riff continued - Played 1 time)
D|--------------------------------------------------------------------|
A|--------------------------------------------------------------------|
F|--------------------------------------------------------------------|
C|--------------------------------------------------------------------|
G|--------------------------------------------------------------------|
D|-2-2-2-2-3-3-3-3-2-2-2-2-3-3-3-3-2-2-2-2-3-3-3-3-0-0-0-0-0-0-0-0----|

(End of Chorus Riff - Played 1 time)
D|--------------------------------------------------------------------|
A|--------------------------------------------------------------------|
F|--------------------------------------------------------------------|
C|---------4-3-5-4----------------------------------------------------|
G|-4-3-5-4-2-1-3-2----------------------------------------------------|
D|-2-1-3-2------------------------------------------------------------|

(The song goes back to the Main Riff and then into the chorus again. This
time the chorus ends just a little different)
(End of 2nd Chorus Riff - Played 1 time)
D|--------------------------------------------------------------------|
A|--------------------------------------------------------------------|
F|--------------------------------------------------------------------|
C|--------------------------------------------------------------------|
G|--------------------------------------------------------------------|
D|-2-2-2-2-3-3-3-3-2-2-2-2-3-3-3-3-2-2-2-2-3-3-3-3-0-0-0-0-1-1-1-1----|

(This riff is right after the second chorus in the song "where the break is")
D|--------------------------------------------------------------------|
A|--------------------------------------------------------------------|
F|--------------------------------------------------------------------|
C|--------------------------------------------------------------------|
G|--------------------------------------------------------------------|
D|-0-0-0-0-0-0-0-0-2-2-2-2-3-3-3-3-0-0-0-0-0-0-0-0-5-5-5-5-6-6-6-6----|

D|--------------------------------------------------------------------|
A|--------------------------------------------------------------------|
F|--------------------------------------------------------------------|
C|--------------------------------------------------------------------|
G|--------------------------------------------------------------------|
D|-0-0-0-0-0-0-0-0-3-3-3-3-4-4-4-4-0-0-0-0-0-0-0-0-1-1-1-1-1-1-1-1----|

D|--------------------------------------------------------------------|
A|--------------------------------------------------------------------|
F|--------------------------------------------------------------------|
C|--------------------------------------------------------------------|
G|--------------------------------------------------------------------|
D|-0-0-0-0-0-0-0-0-2-2-2-2-3-3-3-3-0-0-0-0-0-0-0-0-5-5-5-5-6-6-6-6----|

D|--------------------------------------------------------------------|
A|--------------------------------------------------------------------|
F|--------------------------------------------------------------------|
C|--------------------------------------------------------------------|
G|-----------------------------------------3-3------------------------|
D|-0-0-0-0-0-0-0-0-3-3-3-3-4-4-4-4-0-0-0-0-1-1------------------------|

(This is the riff in the middle of the song with the double bass)
D|--------------------------------------------------------------------|
A|--------------------------------------------------------------------|
F|--------------------------------------------------------------------|
C|--------------------------------------------------------------------|
G|-1-1-1-1-1-1-1-1---------------------------------4-4-4-4-3-3-3-3----|
D|-----------------2-2-2-2-0-0-0-0-0-0-0-0-3-3-3-3--------------------|

D|--------------------------------------------------------------------|
A|--------------------------------------------------------------------|
F|--------------------------------------------------------------------|
C|--------------------------------------------------------------------|
G|-1-1-1-1-1-1-1-1---------------------------------5-5-5-5------------|
D|-----------------2-2-2-2-0-0-0-0-0-0-0-0-4-4-4-4--------------------|

D|--------------------------------------------------------------------|
A|--------------------------------------------------------------------|
F|--------------------------------------------------------------------|
C|--------------------------------------------------------------------|
G|-1-1-1-1-1-1-1-1---------------------------------4-4-4-4-3-3-3-3----|
D|-----------------2-2-2-2-0-0-0-0-0-0-0-0-3-3-3-3--------------------|

D|--------------------------------------------------------------------|
A|--------------------------------------------------------------------|
F|--------------------------------------------------------------------|
C|--------------------------------------------------------------------|
G|-1-1-1-1-1-1-1-1-------------------------3-4-3----------------------|
D|-----------------2-2-2-2-0-0-0-0-0-0-0-0-1-2-1----------------------|

The riffs basicly repeat themselves again thru the rest of the song.  All
the riffs to the song are listed here, just listen to the song and you should
be playing it in no time.

Any questions please contact me.
 

| /  slide up
| \  slide down
| h  hammer-on
| p  pull-off
| ~  vibrato
| +  harmonic
| x  Mute note
Tap to rate this tab
# A B C D E F G H I J K L M N O P Q R S T U V W X Y Z