Song name
# A B C D E F G H I J K L M N O P Q R S T U V W X Y Z

Bloodsoaked - Grotesque Memories tab

Help us improve GuitareTab! Take a short survey!
-----------------------------------------------------------------
SONG NAME: Grotesque Memories - Band Name: BLOODSOAKED
-----------------------------------------------------------------
Tabbed by: Peter Hasselbrack
Email: phasselbrack@hotmail.com

Web Site: http://www.bloodsoaked.us
Web Site: http://www.myspace.com/bloodsoakedband
Web Site: http://profile.ultimate-guitar.com/Bloodsoaked


Tuning: D-G-C-F-A-D

First Riff:
D|------------------------------------------------------|
A|------------------------------------------------------|
F|------------------------------------------------------|
C|------------------------------------------------------|
G|-------------------------------------------------3-2--|
D|-2-2-2-2-3-3-3-3-2-2-2-2-3-3-3-3-0-0-0-0-0-0-0-0-5-4--|

D|-----------------------------------------------------------------|
A|-----------------------------------------------------------------|
F|-----------------------------------------------------------------|
C|-----------------------------------------------------------------|
G|-----------------6-6-6-6-6-6-6-6-----------------7-7-7-7-7-7-7-7-|
D|-6-6-6-6-7-7-7-7-----------------7-7-7-7-8-8-8-8-----------------|

Second Riff:
D|-----------------------------------------------------------------|
A|-----------------------------------------------------------------|
F|-----------------------------------------------------------------|
C|-----------------------------------------------------------------|
G|-----------------3-3-3-3-2-2-2-2---------2-2-2-2-1-1-1-1-1-1-1-1-|
D|-2-2-2-2-1-1-1-1-----------------3-3-3-3-------------------------|

Third Riff:
D|--------------------------------|
A|--------------------------------|
F|--------------------------------|
C|--------------------------------|
G|----------5-4----------3-2------|
D|-0-2-3-2--3-2--0-2-3-2-----3-2--|

(Third Riff Continued, end of third riff)
D|----------|
A|----------|
F|----------|
C|----------|
G|-2-3-5-4--|
D|-0-1-3-2--|

Fourth Riff:
D|-----------------------------------------------------------------------|
A|-----------------------------------------------------------------------|
F|-----------------------------------------------------------------------|
A|-----------------------------------------------------------------------|
G|-----------------7-7-7-7-6-6-6-6---------5-5-5-5---------4-4-4-4-------|
D|-6-6-6-6-5-5-5-5-----------------7-7-7-7---------6-6-6-6---------------|

Fifth Riff:
D|-----------------------------------------------------------------|
A|-----------------------------------------------------------------|
F|-----------------------------------------------------------------|
C|-----------------------------------------------------------------|
G|---------------------------------4-4-4-4-3-3-3-3-6-6-6-6-5-5-5-5-|
D|-4-4-4-4-3-3-3-3-6-6-6-6-5-5-5-5---------------------------------|

Fourth Riff is played again! and then the Fifth Riff is played
again but the end is just four power cords:
D|----------|
A|----------|
F|----------|
C|-6-5-8-7--|
G|-4-3-6-5--|
D|----------|

Then back to the second riff and then to the third riff.
All the riffs to the song are listed here, just listen
to the song and you should be playing it in no time.

Any questions please contact me.



| /  slide up
| \  slide down
| h  hammer-on
| p  pull-off
| ~  vibrato
| +  harmonic
| x  Mute note
Related for Grotesque Memories tab