Guitaretab - guitar tabs
Song name
# A B C D E F G H I J K L M N O P Q R S T U V W X Y Z

Bloodsoaked - Grinding Your Guts tab

-----------------------------------------------------------------
SONG NAME: Grinding Your Guts - Band Name: BLOODSOAKED
-----------------------------------------------------------------
Tabbed by: Peter Hasselbrack
Email: phasselbrack@hotmail.com

Web Site: http://www.bloodsoaked.us
Web Site: http://www.myspace.com/bloodsoakedband
Web Site: http://profile.ultimate-guitar.com/Bloodsoaked


Tuning: D-G-C-F-A-D


(First Riff Played 6 Times)
D|--------------------------------------------------------------------|
A|--------------------------------------------------------------------|
F|--------------------------------------------------------------------|
C|------------------7--------8-7--------------------------------------|
G|-----8-7-10-8-7-8---8-7-10-----10--8--------------------------------|
D|-0-7----------------------------------------------------------------|

(Small break right before the second riff)
D|--------------------------------------------------------------------|
A|--------------------------------------------------------------------|
F|--------------------------------------------------------------------|
C|-5-4-----4-3--------------------------------------------------------|
G|-3-2-5-4-2-1-4-3----------------------------------------------------|
D|-----3-2-----2-1----------------------------------------------------|

(Second Riff)
D|--------------------------------------------------------------------|
A|--------------------------------------------------------------------|
F|--------------------------------------------------------------------|
C|--------------------------------------------------------------------|
G|-2-------------3------------2------------3--2----2-5-4--------------|
D|-0-------------1------------0------------1--0----0-3-2--------------|

(Second Riff Continued)
D|-------------------------------------------------------------------|
A|--------------------------------------------------------------------|
F|--------------------------------------------------------------------|
C|---------------------------------------------5-4-----4-3------------|
G|-2-------------3------------2----------------3-2-5-4-2-1-4-3--------|
D|-0-------------1------------0--------------------3-2-----2-1--------|

(End of second riff right before the chorus)
D|--------------------------------------------------------------------|
A|--------------------------------------------------------------------|
F|--------------------------------------------------------------------|
C|-2------------------------------------------------------------------|
G|-2------------------------------------------------------------------|
D|-0------------------------------------------------------------------|
[ Tab from: http://www.guitaretab.com/b/bloodsoaked/179821.html ]
(Third Riff, this is the chorus riff)
D|--------------------------------------------------------------------|
A|--------------------------------------------------------------------|
F|--------------------------------------------------------------------|
C|--------------------------------------------------------------------|
G|-4-5-4---2---2-2-2-2-2-2-2-2-2-2-2-2--------------------------------|
D|-2-3-2---0---0-0-0-0-0-0-0-0-0-0-0-0--------------------------------|

(Fourth Riff)
D|--------------------------------------------------------------------|
A|--------------------------------------------------------------------|
F|--------------------------------------------------------------------|
C|---------------------6----------------------------------------------|
G|-2-------------------4-----------------4----------------------------|
D|-0-------------------------------------6----------------------------|

(Fifth Riff)
D|-----------------------------------------------------------------|
A|-----------------------------------------------------------------|
F|-----------------------------------------------------------------|
C|-----------------------------------------------------------------|
G|-----------------------------------------------------------------|
D|-0-0-0-0-0-0-0-0-0-0-0-0-0-0-0-0-9-9-9-9-9-9-9-9-9-9-9-9-9-9-9-9-|

(Fifth Riff COntinued)
D|-----------------------------------------------------------------|
A|-----------------------------------------------------------------|
F|-----------------------------------------------------------------|
C|-----------------------------------------------------------------|
G|-----------------------------------------------------------------|
D|-6-6-6-6-6-6-6-6-6-6-6-6-6-6-6-6-6-6-6-6-6-6-6-6-6-6-6-6-6-6-6-6-|

(Sixth Riff played 3 times)
D|-----------------------------------------------------------------|
A|-----------------------------------------------------------------|
F|-----------------------------------------------------------------|
C|-----------------------------------------------------------------|
G|-----------------3-3-3-3-2-2-2-2-5-5-5-5-3-3-3-3-2-2-2-2-3-3-3-3-|
D|-0-0-0-0-2-2-2-2-------------------------------------------------|

(The 4th time the 6th riff is played it is played like the the next 2 bars)
D|-----------------------------------------------------------------|
A|-----------------------------------------------------------------|
F|-----------------------------------------------------------------|
C|-----------------------------------------------------------------|
G|-----------------3-3-3-3-2-2-2-2-5-5-5-5-3-3-3-3-2-2-2-2-3-3-3-3-|
D|-0-0-0-0-2-2-2-2-------------------------------------------------|

D|-----------------------------------------------------------------|
A|-----------------------------------------------------------------|
F|-----------------------------------------------------------------|
C|-2-2-2-2-------------------------3-3-3-3-2-2-2-2-----------------|
G|---------3-3-3-3-2-2-2-2-5-5-5-5-----------------5-5-5-5-3-3-3-3-|
D|-----------------------------------------------------------------|


All the riffs to the song are listed here, just listen
to the song and you should be playing it in no time.

Any questions please contact me.



| /  slide up
| \  slide down
| h  hammer-on
| p  pull-off
| ~  vibrato
| +  harmonic
| x  Mute note
===============================================================
Related for Grinding Your Guts tab
Advertisement will be closed in 10 seconds