Song name
# A B C D E F G H I J K L M N O P Q R S T U V W X Y Z

Bloodsoaked - Suffocating The Unborn tab

-----------------------------------------------------------------
SONG NAME: Suffocating The Unborn - Band Name: BLOODSOAKED
-----------------------------------------------------------------
Tabbed by: Peter Hasselbrack
Email: phasselbrack@hotmail.com

Web Site: http://www.bloodsoaked.us
Web Site: http://www.myspace.com/bloodsoakedband
Web Site: http://profile.ultimate-guitar.com/Bloodsoaked


Tuning: D-G-C-F-A-D


All the riffs are here in order of the song. After the last riff listed below the
song goes back to the first riff. Once you play while listening to the CD you
will see how it flows.

Any questions please ask.




First Riff
D|-------------------------------------------------------------------|
A|-------------------------------------------------------------------|
F|-------------------------------------------------------------------|
C|-------------------------------------------------------------------|
G|-1-1-1-1-1-1-1-1-----------------------------------5-5-5-5-4-4-4-4-|
D|-----------------2-2-2-2-1-1-1-1---3-3-3-3-3-3-3-3-----------------|

Second Riff
D|-----------------------------------------------------------------|
A|-----------------------------------------------------------------|
F|-----------------------------------------------------------------|
C|-----------------------------------------------------------------|
G|-----------------4-4-4-4-4-4-4-4-----------------5-5-5-5-4-4-4-4-|
D|-2-2-2-2-2-2-2-2-----------------2-2-2-2-2-2-2-2-----------------|

End of Second Riff
D|----------------------------------------------------------------------|
A|----------------------------------------------------------------------|
F|----------------------------------------------------------------------|
C|----------------------------------------------------------------------|
G|-1-1-1-1-1-1-1-1--4--3---------------------4--5-----------------------|
D|------------------2--1--0-0-0-0-0-0-0-0----2--3-----------------------|


Third Riff
D|-----------------------------------------------------|
A|-----------------------------------------------------|
F|-----------------------------------------------------|
C|-----------------------------------------------------|
G|-5/4----2~-----4/3----1~-----2-2-2-2-2-2-2-2-2-2-2-2-|
D|-3/2--0-----0--2/1--0--------0-0-0-0-0-0-0-0-0-0-0-0-|

Fourth Riff
D|-----------------------------------------------------------------|
A|-----------------------------------------------------------------|
F|-----------------------------------------------------------------|
C|-----------------------------------------------------------------|
G|-5-5-5-5-----------------------------------------3-3-3-3-2-2-2-2-|
D|---------3-3-3-3-2-2-2-2-5-5-5-5-2-2-2-2-5-5-5-5-----------------|


Fifth Riff
D|---------------------------------------------------------------------------|
A|---------------------------------------------------------------------------|
F|---------------------------------------------------------------------------|
C|---------------------------------------------------------------------------|
G|---------------------------5-5-5-5---------------------------------3-3-3-3-|
D|-3-3-3-3-3-3-3-3-3-2-2-2-2---------3-3-3-3-3-3-3-3-2-2-2-2-5-5-5-5---------|

Sixth Riff
D|-------------------------------------------------------|
A|-------------------------------------------------------|
F|-------------------------------------------------------|
C|-------------------------------------------------------|
G|--------------------------------------------------5--4-|
D|-0-0-0-0-0-0-0-0-3-3-3-3-3-3-3-3-2-2-2-2-2-2-2-2--3--2-|

End of Sixth Riff
D|---------------------------|
A|---------------------------|
F|---------------------------|
C|---------------------------|
G|------------------5--4-----|
D|-0-0-0-0-0-0-0-0--3--2-----|

Seventh Riff
D|--------------------------|
A|--------------------------|
F|--------------------------|
C|--------------------------|
G|-2-2-2-2-2-2-2-2-2---5--4-|
D|-0-0-0-0-0-0-0-0-0---3--2-|

End of Seventh Riff
D|------------|
A|------------|
F|------------|
C|------------|
G|-2-2---5--4-|
D|-0-0---3--2-|


Any questions please contact me.
 

| /  slide up
| \  slide down
| h  hammer-on
| p  pull-off
| ~  vibrato
| +  harmonic
| x  Mute note
Tap to rate this tab
 
# A B C D E F G H I J K L M N O P Q R S T U V W X Y Z